  0
SECTION
  2
HEADER
  9
$ACADVER
  1
AC1015
  9
$ACADMAINTVER
 70
     6
  9
$DWGCODEPAGE
  3
ANSI_1254
  9
$INSBASE
 10
0.0
 20
0.0
 30
0.0
  9
$EXTMIN
 10
0.0
 20
0.0
 30
0.0
  9
$EXTMAX
 10
279.4
 20
215.9
 30
0.0
  9
$LIMMIN
 10
0.0
 20
0.0
  9
$LIMMAX
 10
279.4
 20
215.9
  9
$ORTHOMODE
 70
     0
  9
$REGENMODE
 70
     1
  9
$FILLMODE
 70
     1
  9
$QTEXTMODE
 70
     0
  9
$MIRRTEXT
 70
     1
  9
$LTSCALE
 40
1.0
  9
$ATTMODE
 70
     1
  9
$TEXTSIZE
 40
3.5
  9
$TRACEWID
 40
1.0
  9
$TEXTSTYLE
  7
Standard
  9
$CLAYER
  8
0
  9
$CELTYPE
  6
ByLayer
  9
$CECOLOR
 62
   256
  9
$CELTSCALE
 40
1.0
  9
$DISPSILH
 70
     0
  9
$DIMSCALE
 40
1.0
  9
$DIMASZ
 40
3.5
  9
$DIMEXO
 40
1.0
  9
$DIMDLI
 40
3.75
  9
$DIMRND
 40
0.0
  9
$DIMDLE
 40
0.0
  9
$DIMEXE
 40
1.0
  9
$DIMTP
 40
0.0
  9
$DIMTM
 40
0.0
  9
$DIMTXT
 40
3.5
  9
$DIMCEN
 40
2.5
  9
$DIMTSZ
 40
0.0
  9
$DIMTOL
 70
     0
  9
$DIMLIM
 70
     0
  9
$DIMTIH
 70
     1
  9
$DIMTOH
 70
     1
  9
$DIMSE1
 70
     0
  9
$DIMSE2
 70
     0
  9
$DIMTAD
 70
     1
  9
$DIMZIN
 70
     0
  9
$DIMBLK
  1

  9
$DIMASO
 70
     1
  9
$DIMSHO
 70
     1
  9
$DIMPOST
  1

  9
$DIMAPOST
  1

  9
$DIMALT
 70
     0
  9
$DIMALTD
 70
     3
  9
$DIMALTF
 40
0.0393700787
  9
$DIMLFAC
 40
1.0
  9
$DIMTOFL
 70
     1
  9
$DIMTVP
 40
0.0
  9
$DIMTIX
 70
     0
  9
$DIMSOXD
 70
     0
  9
$DIMSAH
 70
     0
  9
$DIMBLK1
  1

  9
$DIMBLK2
  1

  9
$DIMSTYLE
  2
ISO-25
  9
$DIMCLRD
 70
     0
  9
$DIMCLRE
 70
     0
  9
$DIMCLRT
 70
     0
  9
$DIMTFAC
 40
1.0
  9
$DIMGAP
 40
1.524
  9
$DIMJUST
 70
     0
  9
$DIMSD1
 70
     0
  9
$DIMSD2
 70
     0
  9
$DIMTOLJ
 70
     0
  9
$DIMTZIN
 70
     0
  9
$DIMALTZ
 70
     0
  9
$DIMALTTZ
 70
     0
  9
$DIMUPT
 70
     0
  9
$DIMDEC
 70
     2
  9
$DIMTDEC
 70
     2
  9
$DIMALTU
 70
     2
  9
$DIMALTTD
 70
     3
  9
$DIMTXSTY
  7
Standard
  9
$DIMAUNIT
 70
     0
  9
$DIMADEC
 70
     2
  9
$DIMALTRND
 40
0.0
  9
$DIMAZIN
 70
     0
  9
$DIMDSEP
 70
    44
  9
$DIMATFIT
 70
     3
  9
$DIMFRAC
 70
     0
  9
$DIMLDRBLK
  1

  9
$DIMLUNIT
 70
     2
  9
$DIMLWD
 70
    -2
  9
$DIMLWE
 70
    -2
  9
$DIMTMOVE
 70
     0
  9
$LUNITS
 70
     2
  9
$LUPREC
 70
     2
  9
$SKETCHINC
 40
1.0
  9
$FILLETRAD
 40
10.0
  9
$AUNITS
 70
     0
  9
$AUPREC
 70
     2
  9
$MENU
  1
.
  9
$ELEVATION
 40
0.0
  9
$PELEVATION
 40
0.0
  9
$THICKNESS
 40
0.0
  9
$LIMCHECK
 70
     0
  9
$CHAMFERA
 40
0.0
  9
$CHAMFERB
 40
0.0
  9
$CHAMFERC
 40
0.0
  9
$CHAMFERD
 40
0.0
  9
$SKPOLY
 70
     0
  9
$TDCREATE
 40
2458985.718117153
  9
$TDUCREATE
 40
2458985.593117153
  9
$TDUPDATE
 40
2458985.718117408
  9
$TDUUPDATE
 40
2458985.593117408
  9
$TDINDWG
 40
0.0000000116
  9
$TDUSRTIMER
 40
0.0000000116
  9
$USRTIMER
 70
     1
  9
$ANGBASE
 50
0.0
  9
$ANGDIR
 70
     0
  9
$PDMODE
 70
     0
  9
$PDSIZE
 40
-1.0
  9
$PLINEWID
 40
0.0
  9
$SPLFRAME
 70
     0
  9
$SPLINETYPE
 70
     6
  9
$SPLINESEGS
 70
     8
  9
$HANDSEED
  5
DD
  9
$SURFTAB1
 70
     6
  9
$SURFTAB2
 70
     6
  9
$SURFTYPE
 70
     6
  9
$SURFU
 70
     6
  9
$SURFV
 70
     6
  9
$UCSBASE
  2

  9
$UCSNAME
  2

  9
$UCSORG
 10
0.0
 20
0.0
 30
0.0
  9
$UCSXDIR
 10
1.0
 20
0.0
 30
0.0
  9
$UCSYDIR
 10
0.0
 20
1.0
 30
0.0
  9
$UCSORTHOREF
  2

  9
$UCSORTHOVIEW
 70
     0
  9
$UCSORGTOP
 10
0.0
 20
0.0
 30
0.0
  9
$UCSORGBOTTOM
 10
0.0
 20
0.0
 30
0.0
  9
$UCSORGLEFT
 10
0.0
 20
0.0
 30
0.0
  9
$UCSORGRIGHT
 10
0.0
 20
0.0
 30
0.0
  9
$UCSORGFRONT
 10
0.0
 20
0.0
 30
0.0
  9
$UCSORGBACK
 10
0.0
 20
0.0
 30
0.0
  9
$PUCSBASE
  2

  9
$PUCSNAME
  2

  9
$PUCSORG
 10
0.0
 20
0.0
 30
0.0
  9
$PUCSXDIR
 10
1.0
 20
0.0
 30
0.0
  9
$PUCSYDIR
 10
0.0
 20
1.0
 30
0.0
  9
$PUCSORTHOREF
  2

  9
$PUCSORTHOVIEW
 70
     0
  9
$PUCSORGTOP
 10
0.0
 20
0.0
 30
0.0
  9
$PUCSORGBOTTOM
 10
0.0
 20
0.0
 30
0.0
  9
$PUCSORGLEFT
 10
0.0
 20
0.0
 30
0.0
  9
$PUCSORGRIGHT
 10
0.0
 20
0.0
 30
0.0
  9
$PUCSORGFRONT
 10
0.0
 20
0.0
 30
0.0
  9
$PUCSORGBACK
 10
0.0
 20
0.0
 30
0.0
  9
$USERI1
 70
     0
  9
$USERI2
 70
     0
  9
$USERI3
 70
     0
  9
$USERI4
 70
     0
  9
$USERI5
 70
     0
  9
$USERR1
 40
0.0
  9
$USERR2
 40
0.0
  9
$USERR3
 40
0.0
  9
$USERR4
 40
0.0
  9
$USERR5
 40
0.0
  9
$WORLDVIEW
 70
     1
  9
$SHADEDGE
 70
     3
  9
$SHADEDIF
 70
    70
  9
$TILEMODE
 70
     1
  9
$MAXACTVP
 70
    64
  9
$PINSBASE
 10
0.0
 20
0.0
 30
0.0
  9
$PLIMCHECK
 70
     0
  9
$PEXTMIN
 10
1.0000000000E+20
 20
1.0000000000E+20
 30
1.0000000000E+20
  9
$PEXTMAX
 10
-1.0000000000E+20
 20
-1.0000000000E+20
 30
-1.0000000000E+20
  9
$PLIMMIN
 10
0.0
 20
0.0
  9
$PLIMMAX
 10
420.0
 20
297.0
  9
$UNITMODE
 70
     0
  9
$VISRETAIN
 70
     1
  9
$PLINEGEN
 70
     0
  9
$PSLTSCALE
 70
     1
  9
$TREEDEPTH
 70
  3020
  9
$CMLSTYLE
  2
Standard
  9
$CMLJUST
 70
     0
  9
$CMLSCALE
 40
20.0
  9
$PROXYGRAPHICS
 70
     1
  9
$MEASUREMENT
 70
     1
  9
$CELWEIGHT
370
    -1
  9
$ENDCAPS
280
     0
  9
$JOINSTYLE
280
     0
  9
$LWDISPLAY
290
     1
  9
$INSUNITS
 70
     4
  9
$HYPERLINKBASE
  1

  9
$STYLESHEET
  1

  9
$XEDIT
290
     1
  9
$CEPSNTYPE
380
     0
  9
$PSTYLEMODE
290
     1
  9
$FINGERPRINTGUID
  2
{00acae5d-8226-41d8-90e8-ad04e62ff4df}
  9
$VERSIONGUID
  2
{FAEB1C32-E019-11D5-929B-00C0DF256EC4}
  9
$EXTNAMES
290
     1
  9
$PSVPSCALE
 40
0.0
  9
$OLESTARTUP
290
     0
  0
ENDSEC
  0
SECTION
  2
CLASSES
  0
CLASS
  1
ACDBDICTIONARYWDFLT
  2
AcDbDictionaryWithDefault
  3
ObjectDBX Classes
 90
        0
280
     0
281
     0
  0
CLASS
  1
VISUALSTYLE
  2
AcDbVisualStyle
  3
ObjectDBX Classes
 90
     4095
280
     0
281
     0
  0
CLASS
  1
MATERIAL
  2
AcDbMaterial
  3
ObjectDBX Classes
 90
     1153
280
     0
281
     0
  0
CLASS
  1
SCALE
  2
AcDbScale
  3
ObjectDBX Classes
 90
     1153
280
     0
281
     0
  0
CLASS
  1
TABLESTYLE
  2
AcDbTableStyle
  3
ObjectDBX Classes
 90
     4095
280
     0
281
     0
  0
CLASS
  1
MLEADERSTYLE
  2
AcDbMLeaderStyle
  3
ACDB_MLEADERSTYLE_CLASS
 90
     4095
280
     0
281
     0
  0
CLASS
  1
SUN
  2
AcDbSun
  3
SCENEOE
 90
     1153
280
     0
281
     0
  0
CLASS
  1
ACDBPLACEHOLDER
  2
AcDbPlaceHolder
  3
ObjectDBX Classes
 90
        0
280
     0
281
     0
  0
CLASS
  1
LAYOUT
  2
AcDbLayout
  3
ObjectDBX Classes
 90
        0
280
     0
281
     0
  0
ENDSEC
  0
SECTION
  2
TABLES
  0
TABLE
  2
VPORT
  5
8
330
0
100
AcDbSymbolTable
 70
     1
  0
VPORT
  5
29
330
8
100
AcDbSymbolTableRecord
100
AcDbViewportTableRecord
  2
*Active
 70
     0
 10
0.0
 20
0.0
 11
1.0
 21
1.0
 12
139.7
 22
107.95
 13
0.0
 23
0.0
 14
10.0
 24
10.0
 15
10.0
 25
10.0
 16
0.0
 26
0.0
 36
1.0
 17
0.0
 27
0.0
 37
0.0
 40
215.9
 41
1.2941176471
 42
50.0
 43
0.0
 44
0.0
 50
0.0
 51
0.0
 71
     0
 72
  2000
 73
     1
 74
     3
 75
     0
 76
     0
 77
     0
 78
     0
281
     0
 65
     1
110
0.0
120
0.0
130
0.0
111
1.0
121
0.0
131
0.0
112
0.0
122
1.0
132
0.0
 79
     0
146
0.0
  0
ENDTAB
  0
TABLE
  2
LTYPE
  5
5
330
0
100
AcDbSymbolTable
 70
     6
  0
LTYPE
  5
14
330
5
100
AcDbSymbolTableRecord
100
AcDbLinetypeTableRecord
  2
ByBlock
 70
     0
  3

 72
    65
 73
     0
 40
0.0
  0
LTYPE
  5
15
330
5
100
AcDbSymbolTableRecord
100
AcDbLinetypeTableRecord
  2
ByLayer
 70
     0
  3

 72
    65
 73
     0
 40
0.0
  0
LTYPE
  5
16
330
5
100
AcDbSymbolTableRecord
100
AcDbLinetypeTableRecord
  2
Continuous
 70
     0
  3
Solid line
 72
    65
 73
     0
 40
0.0
  0
LTYPE
  5
6E
330
5
100
AcDbSymbolTableRecord
100
AcDbLinetypeTableRecord
  2
HIDDEN
 70
     0
  3
Hidden __ __ __ __ __ __ __ __ __ __ __ __ __ __
 72
    65
 73
     2
 40
1.905
 49
1.27
 74
     0
 49
-0.635
 74
     0
  0
LTYPE
  5
6F
330
5
100
AcDbSymbolTableRecord
100
AcDbLinetypeTableRecord
  2
PHANTOM
 70
     0
  3
Phantom ______  __  __  ______  __  __  ______
 72
    65
 73
     6
 40
12.7
 49
6.35
 74
     0
 49
-1.27
 74
     0
 49
1.27
 74
     0
 49
-1.27
 74
     0
 49
1.27
 74
     0
 49
-1.27
 74
     0
  0
LTYPE
  5
70
330
5
100
AcDbSymbolTableRecord
100
AcDbLinetypeTableRecord
  2
CENTER
 70
     0
  3
Center ____ _ ____ _ ____ _ ____ _ ____ _ ____
 72
    65
 73
     4
 40
10.16
 49
6.35
 74
     0
 49
-1.27
 74
     0
 49
1.27
 74
     0
 49
-1.27
 74
     0
  0
LTYPE
  5
71
330
5
100
AcDbSymbolTableRecord
100
AcDbLinetypeTableRecord
  2
CENTERX2
 70
     0
  3
Center (2x) ________  __  ________  __  _____
 72
    65
 73
     4
 40
20.32
 49
12.7
 74
     0
 49
-2.54
 74
     0
 49
2.54
 74
     0
 49
-2.54
 74
     0
  0
LTYPE
  5
72
330
5
100
AcDbSymbolTableRecord
100
AcDbLinetypeTableRecord
  2
DOT2
 70
     0
  3
Dot (.5x) ........................................
 72
    65
 73
     2
 40
0.635
 49
0.0
 74
     0
 49
-0.635
 74
     0
  0
ENDTAB
  0
TABLE
  2
LAYER
  5
2
330
0
100
AcDbSymbolTable
 70
    17
  0
LAYER
  5
10
330
2
100
AcDbSymbolTableRecord
100
AcDbLayerTableRecord
  2
0
 70
     0
 62
     7
  6
Continuous
370
    -3
390
F
  0
LAYER
  5
73
330
2
100
AcDbSymbolTableRecord
100
AcDbLayerTableRecord
  2
FORMAT
 70
     0
 62
     7
  6
Continuous
370
    -3
390
F
  0
LAYER
  5
74
330
2
100
AcDbSymbolTableRecord
100
AcDbLayerTableRecord
  2
YARDIMCI_GEOMETRI
 70
     0
 62
    -6
  6
Continuous
290
     0
370
    -3
390
F
  0
LAYER
  5
75
330
2
100
AcDbSymbolTableRecord
100
AcDbLayerTableRecord
  2
SAYFA_CERCEVESI
 70
     0
 62
     7
  6
Continuous
370
    25
390
F
  0
LAYER
  5
76
330
2
100
AcDbSymbolTableRecord
100
AcDbLayerTableRecord
  2
ANTET
 70
     0
 62
     7
  6
Continuous
370
    -3
390
F
  0
LAYER
  5
77
330
2
100
AcDbSymbolTableRecord
100
AcDbLayerTableRecord
  2
OLCU
 70
     0
 62
   150
  6
Continuous
370
    -3
390
F
  0
LAYER
  5
78
330
2
100
AcDbSymbolTableRecord
100
AcDbLayerTableRecord
  2
METIN
 70
     0
 62
    96
  6
Continuous
370
    -3
390
F
  0
LAYER
  5
79
330
2
100
AcDbSymbolTableRecord
100
AcDbLayerTableRecord
  2
BALON
 70
     0
 62
     5
  6
Continuous
370
    -3
390
F
  0
LAYER
  5
7A
330
2
100
AcDbSymbolTableRecord
100
AcDbLayerTableRecord
  2
VURGU
 70
     0
 62
     7
  6
Continuous
370
    -3
390
F
  0
LAYER
  5
7B
330
2
100
AcDbSymbolTableRecord
100
AcDbLayerTableRecord
  2
SILIK
 70
     0
 62
     7
  6
Continuous
370
    -3
390
F
  0
LAYER
  5
7C
330
2
100
AcDbSymbolTableRecord
100
AcDbLayerTableRecord
  2
MODEL
 70
     0
 62
     7
  6
Continuous
370
    -3
390
F
  0
LAYER
  5
7D
330
2
100
AcDbSymbolTableRecord
100
AcDbLayerTableRecord
  2
DETAYLANDıRMA
 70
     0
 62
   190
  6
Continuous
370
    -3
390
F
  0
LAYER
  5
7E
330
2
100
AcDbSymbolTableRecord
100
AcDbLayerTableRecord
  2
TOLERANS
 70
     0
 62
   230
  6
Continuous
370
    -3
390
F
  0
LAYER
  5
7F
330
2
100
AcDbSymbolTableRecord
100
AcDbLayerTableRecord
  2
MERKEZ_CIZGILERI
 70
     0
 62
    30
  6
Continuous
370
    -3
390
F
  0
LAYER
  5
80
330
2
100
AcDbSymbolTableRecord
100
AcDbLayerTableRecord
  2
KESIT-DETAY_CIZGILERI
 70
     0
 62
     7
  6
Continuous
370
    -3
390
F
  0
LAYER
  5
81
330
2
100
AcDbSymbolTableRecord
100
AcDbLayerTableRecord
  2
\U+041E\U+0421\U+0415\U+0412\U+042B\U+0415
 70
     0
 62
     7
  6
Continuous
370
    -3
390
F
  0
LAYER
  5
82
330
2
100
AcDbSymbolTableRecord
100
AcDbLayerTableRecord
  2
\U+0412\U+041E\U+0414\U+042F\U+041D\U+042B\U+0415_\U+0417\U+041D\U+0410\U+041A\U+0418
 70
     0
 62
    11
  6
Continuous
370
    -3
390
F
  0
ENDTAB
  0
TABLE
  2
STYLE
  5
3
330
0
100
AcDbSymbolTable
 70
     1
  0
STYLE
  5
11
330
3
100
AcDbSymbolTableRecord
100
AcDbTextStyleTableRecord
  2
Standard
 70
     0
 40
0.0
 41
1.0
 50
0.0
 71
     0
 42
3.5
  3
txt
  4

  0
ENDTAB
  0
TABLE
  2
VIEW
  5
6
330
0
100
AcDbSymbolTable
 70
     0
  0
ENDTAB
  0
TABLE
  2
UCS
  5
7
330
0
100
AcDbSymbolTable
 70
     0
  0
ENDTAB
  0
TABLE
  2
APPID
  5
9
330
0
100
AcDbSymbolTable
 70
     1
  0
APPID
  5
12
330
9
100
AcDbSymbolTableRecord
100
AcDbRegAppTableRecord
  2
ACAD
 70
     0
  0
ENDTAB
  0
TABLE
  2
DIMSTYLE
  5
A
330
0
100
AcDbSymbolTable
 70
     1
100
AcDbDimStyleTable
  0
DIMSTYLE
105
27
330
A
100
AcDbSymbolTableRecord
100
AcDbDimStyleTableRecord
  2
ISO-25
 70
     0
 41
2.5
 42
0.625
 43
3.75
 44
1.25
 73
     0
 74
     0
 77
     1
 78
     8
140
2.5
141
2.5
143
0.0393700787
147
0.625
171
     3
172
     1
178
     0
271
     2
272
     2
274
     3
278
    44
283
     0
284
     8
340
11
  0
ENDTAB
  0
TABLE
  2
BLOCK_RECORD
  5
1
330
0
100
AcDbSymbolTable
 70
     3
  0
BLOCK_RECORD
  5
1F
330
1
100
AcDbSymbolTableRecord
100
AcDbBlockTableRecord
  2
*Model_Space
340
22
  0
BLOCK_RECORD
  5
1B
330
1
100
AcDbSymbolTableRecord
100
AcDbBlockTableRecord
  2
*Paper_Space
340
1E
  0
BLOCK_RECORD
  5
23
330
1
100
AcDbSymbolTableRecord
100
AcDbBlockTableRecord
  2
*Paper_Space0
340
26
  0
BLOCK_RECORD
  5
AF
330
1
100
AcDbSymbolTableRecord
100
AcDbBlockTableRecord
  2
SW_CENTERMARKSYMBOL_0
340
0
102
{BLKREFS
331
BA
102
}
  0
BLOCK_RECORD
  5
C3
330
1
100
AcDbSymbolTableRecord
100
AcDbBlockTableRecord
  2
SW_CENTERMARKSYMBOL_1
340
0
102
{BLKREFS
331
CE
102
}
  0
ENDTAB
  0
ENDSEC
  0
SECTION
  2
BLOCKS
  0
BLOCK
  5
20
330
1F
100
AcDbEntity
  8
0
100
AcDbBlockBegin
  2
*Model_Space
 70
     0
 10
0.0
 20
0.0
 30
0.0
  3
*Model_Space
  1

  0
ENDBLK
  5
21
330
1F
100
AcDbEntity
  8
0
100
AcDbBlockEnd
  0
BLOCK
  5
1C
330
1B
100
AcDbEntity
 67
     1
  8
0
100
AcDbBlockBegin
  2
*Paper_Space
 70
     0
 10
0.0
 20
0.0
 30
0.0
  3
*Paper_Space
  1

  0
ENDBLK
  5
1D
330
1B
100
AcDbEntity
 67
     1
  8
0
100
AcDbBlockEnd
  0
BLOCK
  5
24
330
23
100
AcDbEntity
  8
0
100
AcDbBlockBegin
  2
*Paper_Space0
 70
     0
 10
0.0
 20
0.0
 30
0.0
  3
*Paper_Space0
  1

  0
ENDBLK
  5
25
330
23
100
AcDbEntity
  8
0
100
AcDbBlockEnd
  0
BLOCK
  5
B0
330
AF
100
AcDbEntity
  8
0
100
AcDbBlockBegin
  2
SW_CENTERMARKSYMBOL_0
 70
     0
 10
0.0
 20
0.0
 30
0.0
  3
SW_CENTERMARKSYMBOL_0
  1

  0
LINE
  5
B2
330
AF
100
AcDbEntity
  8
FORMAT
 62
     0
100
AcDbLine
 10
0.0
 20
0.0
 30
0.0
 11
0.0
 21
2.5
 31
0.0
  0
LINE
  5
B3
330
AF
100
AcDbEntity
  8
FORMAT
 62
     0
100
AcDbLine
 10
0.0
 20
0.0
 30
0.0
 11
-2.5
 21
0.0
 31
0.0
  0
LINE
  5
B4
330
AF
100
AcDbEntity
  8
FORMAT
 62
     0
100
AcDbLine
 10
0.0
 20
0.0
 30
0.0
 11
0.0
 21
-2.5
 31
0.0
  0
LINE
  5
B5
330
AF
100
AcDbEntity
  8
FORMAT
 62
     0
100
AcDbLine
 10
0.0
 20
0.0
 30
0.0
 11
2.5
 21
0.0
 31
0.0
  0
LINE
  5
B6
330
AF
100
AcDbEntity
  8
FORMAT
 62
     0
100
AcDbLine
 10
0.0
 20
5.0
 30
0.0
 11
0.0
 21
57.5
 31
0.0
  0
LINE
  5
B7
330
AF
100
AcDbEntity
  8
FORMAT
 62
     0
100
AcDbLine
 10
-5.0
 20
0.0
 30
0.0
 11
-57.5
 21
0.0
 31
0.0
  0
LINE
  5
B8
330
AF
100
AcDbEntity
  8
FORMAT
 62
     0
100
AcDbLine
 10
0.0
 20
-5.0
 30
0.0
 11
0.0
 21
-57.5
 31
0.0
  0
LINE
  5
B9
330
AF
100
AcDbEntity
  8
FORMAT
 62
     0
100
AcDbLine
 10
5.0
 20
0.0
 30
0.0
 11
57.5
 21
0.0
 31
0.0
  0
ENDBLK
  5
B1
330
AF
100
AcDbEntity
  8
0
100
AcDbBlockEnd
  0
BLOCK
  5
C4
330
C3
100
AcDbEntity
  8
0
100
AcDbBlockBegin
  2
SW_CENTERMARKSYMBOL_1
 70
     0
 10
0.0
 20
0.0
 30
0.0
  3
SW_CENTERMARKSYMBOL_1
  1

  0
LINE
  5
C6
330
C3
100
AcDbEntity
  8
FORMAT
 62
     0
100
AcDbLine
 10
0.0
 20
0.0
 30
0.0
 11
0.0
 21
2.5
 31
0.0
  0
LINE
  5
C7
330
C3
100
AcDbEntity
  8
FORMAT
 62
     0
100
AcDbLine
 10
0.0
 20
0.0
 30
0.0
 11
-2.5
 21
0.0
 31
0.0
  0
LINE
  5
C8
330
C3
100
AcDbEntity
  8
FORMAT
 62
     0
100
AcDbLine
 10
0.0
 20
0.0
 30
0.0
 11
0.0
 21
-2.5
 31
0.0
  0
LINE
  5
C9
330
C3
100
AcDbEntity
  8
FORMAT
 62
     0
100
AcDbLine
 10
0.0
 20
0.0
 30
0.0
 11
2.5
 21
0.0
 31
0.0
  0
LINE
  5
CA
330
C3
100
AcDbEntity
  8
FORMAT
 62
     0
100
AcDbLine
 10
0.0
 20
5.0
 30
0.0
 11
0.0
 21
57.5
 31
0.0
  0
LINE
  5
CB
330
C3
100
AcDbEntity
  8
FORMAT
 62
     0
100
AcDbLine
 10
-5.0
 20
0.0
 30
0.0
 11
-57.5
 21
0.0
 31
0.0
  0
LINE
  5
CC
330
C3
100
AcDbEntity
  8
FORMAT
 62
     0
100
AcDbLine
 10
0.0
 20
-5.0
 30
0.0
 11
0.0
 21
-57.5
 31
0.0
  0
LINE
  5
CD
330
C3
100
AcDbEntity
  8
FORMAT
 62
     0
100
AcDbLine
 10
5.0
 20
0.0
 30
0.0
 11
57.5
 21
0.0
 31
0.0
  0
ENDBLK
  5
C5
330
C3
100
AcDbEntity
  8
0
100
AcDbBlockEnd
  0
ENDSEC
  0
SECTION
  2
ENTITIES
  0
LINE
  5
83
330
1F
100
AcDbEntity
  8
0
  6
Continuous
 62
     7
370
    25
100
AcDbLine
 10
69.8778322883
 20
104.3190509359
 30
0.0
 11
69.8778322883
 21
-0.8992030939
 31
0.0
  0
LINE
  5
84
330
1F
100
AcDbEntity
  8
0
  6
Continuous
 62
     7
370
    25
100
AcDbLine
 10
179.8778316922
 20
-0.8992030939
 30
0.0
 11
179.8778316922
 21
104.3190509359
 31
0.0
  0
ARC
  5
85
330
1F
100
AcDbEntity
  8
0
  6
Continuous
 62
     7
370
    25
100
AcDbCircle
 10
179.8778319902
 20
104.3190509756
 30
0.0
 40
110.0
100
AcDbArc
 50
135.0
 51
180.0
  0
LINE
  5
86
330
1F
100
AcDbEntity
  8
0
  6
Continuous
 62
     7
370
    25
100
AcDbLine
 10
177.9869600184
 20
257.9916641394
 30
0.0
 11
102.0960855283
 21
182.1007952372
 31
0.0
  0
LINE
  5
87
330
1F
100
AcDbEntity
  8
0
  6
Continuous
 62
     7
370
    25
100
AcDbLine
 10
179.8778316922
 20
104.3190509359
 30
0.0
 11
255.768708045
 21
180.2099272887
 31
0.0
  0
LINE
  5
88
330
1F
100
AcDbEntity
  8
0
  6
Continuous
 62
     7
370
    25
100
AcDbLine
 10
124.8778319902
 20
-0.8992030939
 30
0.0
 11
179.8778316922
 21
-0.8992030939
 31
0.0
  0
LINE
  5
89
330
1F
100
AcDbEntity
  8
0
  6
Continuous
 62
     7
370
    25
100
AcDbLine
 10
69.8778322883
 20
-0.8992030939
 30
0.0
 11
124.8778319902
 21
-0.8992030939
 31
0.0
  0
LWPOLYLINE
  5
8A
330
1F
100
AcDbEntity
  8
0
  6
Continuous
 62
     7
370
    25
100
AcDbPolyline
 90
       26
 70
   128
 43
0.0
 10
216.8778321691
 20
219.100795714
 10
219.3952343411
 20
216.5833935419
 10
221.9020715899
 20
214.0765562931
 10
224.3878385968
 20
211.5907892863
 10
226.8421045489
 20
209.1365233342
 10
229.2545801945
 20
206.7240551392
 10
231.6151401944
 20
204.3634876887
 10
233.9138901777
 20
202.0647451559
 10
236.1411816425
 20
199.8374536911
 10
238.2876790113
 20
197.6909563223
 10
240.3443745322
 20
195.6342533509
 10
242.3026404328
 20
193.6759874502
 10
244.1542661734
 20
191.8243542591
 10
245.8914882488
 20
190.0871321837
 10
247.5070199914
 20
188.4716078917
 10
248.9940739222
 20
186.9845465103
 10
250.3464288063
 20
185.6322065274
 10
251.5583998508
 20
184.4202354828
 10
252.6249057598
 20
183.3537146727
 10
253.541491086
 20
182.4371442477
 10
254.3042815275
 20
181.6743538061
 10
254.9100882359
 20
181.0685321966
 10
255.3563929148
 20
180.6222424189
 10
255.6412882156
 20
180.3373322169
 10
255.7636118479
 20
180.2150234858
 10
255.768708045
 20
180.2099272887
  0
LWPOLYLINE
  5
8B
330
1F
100
AcDbEntity
  8
0
  6
Continuous
 62
     7
370
    25
100
AcDbPolyline
 90
       26
 70
   128
 43
0.0
 10
177.9869600184
 20
257.9916641394
 10
177.9920599408
 20
257.9865679423
 10
178.1143723972
 20
257.8642592112
 10
178.3992751486
 20
257.5793490092
 10
178.8455686517
 20
257.1330592314
 10
179.4513828106
 20
256.5272376219
 10
180.2141807027
 20
255.7644471804
 10
181.130754853
 20
254.8478767554
 10
182.1972644873
 20
253.7813708464
 10
183.4092355318
 20
252.5693998019
 10
184.7615866907
 20
251.2170300165
 10
186.248648072
 20
249.7299835364
 10
187.8641760893
 20
248.1144592444
 10
189.6013981648
 20
246.3772371689
 10
191.4530239053
 20
244.5256039778
 10
193.4112898059
 20
242.5673380772
 10
195.4679853268
 20
240.5106351057
 10
197.6144826956
 20
238.3641526381
 10
199.8417741604
 20
236.1368462721
 10
202.1405241437
 20
233.8381037394
 10
204.5010841436
 20
231.47755119
 10
206.9135597892
 20
229.0650680939
 10
209.3678257413
 20
226.6108021418
 10
211.8535927482
 20
224.1250351349
 10
214.360429997
 20
221.6181978861
 10
216.8778321691
 20
219.100795714
  0
LINE
  5
8C
330
1F
100
AcDbEntity
  8
0
  6
Continuous
 62
     1
370
    25
100
AcDbLine
 10
69.8778322883
 20
104.3190509359
 30
0.0
 11
179.8778316922
 21
104.3190509359
 31
0.0
  0
LWPOLYLINE
  5
8D
330
1F
100
AcDbEntity
  8
0
  6
Continuous
 62
     1
370
    25
100
AcDbPolyline
 90
       50
 70
   128
 43
0.0
 10
102.0960855283
 20
182.1007952372
 10
102.1164814926
 20
182.0803955475
 10
102.2795188226
 20
181.9173619429
 10
102.6049061663
 20
181.5919801871
 10
103.091283793
 20
181.1056062857
 10
103.7366065182
 20
180.4602816979
 10
104.5381716437
 20
179.6587035338
 10
105.4926152326
 20
178.7042692581
 10
106.5959363229
 20
177.6009425799
 10
107.8435025163
 20
176.3533875624
 10
109.2300853677
 20
174.966804711
 10
110.749866905
 20
173.4470203797
 10
112.396474088
 20
171.8004122654
 10
114.1629992969
 20
170.0338796059
 10
116.0420338608
 20
168.1548431794
 10
118.025695531
 20
166.1711857001
 10
120.1056648031
 20
164.091222016
 10
122.2732175126
 20
161.9236693064
 10
124.5192623507
 20
159.6776172797
 10
126.8343784366
 20
157.3624983708
 10
129.2088554226
 20
154.9880281369
 10
131.632733716
 20
152.5641456524
 10
134.095846767
 20
150.1010433117
 10
136.5878638796
 20
147.6090178171
 10
139.0983314238
 20
145.098544685
 10
141.6167217292
 20
142.5801590363
 10
144.1324698724
 20
140.0644108931
 10
146.6350249
 20
137.5618651787
 10
149.1138908066
 20
135.0829974095
 10
151.5586684443
 20
132.6382085959
 10
153.9591039516
 20
130.2377805392
 10
156.3051297314
 20
127.891756622
 10
158.5869072921
 20
125.6099716107
 10
160.7948645003
 20
123.4020218531
 10
162.9197402842
 20
121.2771460692
 10
164.9526237495
 20
119.2442626039
 10
166.8849839814
 20
117.311902372
 10
168.7087184734
 20
115.4881641547
 10
170.4161792047
 20
113.7806996981
 10
172.0002061672
 20
112.1966764609
 10
173.4541497178
 20
110.7427329103
 10
174.7719152815
 20
109.4249636213
 10
175.9479782529
 20
108.2489043752
 10
176.9773988969
 20
107.2194874564
 10
177.8558633275
 20
106.3410193006
 10
178.5796872325
 20
105.6171953956
 10
179.1458345003
 20
105.0510481278
 10
179.551932121
 20
104.6449542323
 10
179.7962701864
 20
104.4006124417
 10
179.8778316922
 20
104.3190509359
  0
LINE
  5
8E
330
1F
100
AcDbEntity
  8
0
  6
Continuous
 62
     7
370
    25
100
AcDbLine
 10
-156.2223199729
 20
219.100795714
 30
0.0
 11
-156.2223199729
 21
143.2099268118
 31
0.0
  0
LINE
  5
8F
330
1F
100
AcDbEntity
  8
0
  6
Continuous
 62
     7
370
    25
100
AcDbLine
 10
-46.2223205689
 20
143.2099268118
 30
0.0
 11
-46.2223205689
 21
219.100795714
 31
0.0
  0
LINE
  5
90
330
1F
100
AcDbEntity
  8
0
  6
Continuous
 62
     7
370
    25
100
AcDbLine
 10
-156.2223199729
 20
143.2099268118
 30
0.0
 11
-156.2223199729
 21
104.3190509359
 31
0.0
  0
LINE
  5
91
330
1F
100
AcDbEntity
  8
0
  6
Continuous
 62
     7
370
    25
100
AcDbLine
 10
-46.2223205689
 20
104.3190509359
 30
0.0
 11
-46.2223205689
 21
143.2099268118
 31
0.0
  0
LINE
  5
92
330
1F
100
AcDbEntity
  8
0
  6
Continuous
 62
     7
370
    25
100
AcDbLine
 10
-156.2223199729
 20
104.3190509359
 30
0.0
 11
-156.2223199729
 21
-0.8992030939
 31
0.0
  0
LINE
  5
93
330
1F
100
AcDbEntity
  8
0
  6
Continuous
 62
     7
370
    25
100
AcDbLine
 10
-46.2223205689
 20
-0.8992030939
 30
0.0
 11
-46.2223205689
 21
104.3190509359
 31
0.0
  0
LWPOLYLINE
  5
94
330
1F
100
AcDbEntity
  8
0
  6
Continuous
 62
     7
370
    25
100
AcDbPolyline
 90
       98
 70
   128
 43
0.0
 10
-156.2223199729
 20
219.100795714
 10
-156.1069775346
 20
216.5833935419
 10
-155.7614270571
 20
214.0765562931
 10
-155.1871214036
 20
211.5907892863
 10
-154.3864671115
 20
209.1365233342
 10
-153.3628243927
 20
206.7240551392
 10
-152.1204885069
 20
204.3634876887
 10
-150.66466741
 20
202.0647451559
 10
-149.0014668528
 20
199.8374536911
 10
-147.1378643039
 20
197.6909563223
 10
-145.0816754225
 20
195.6342533509
 10
-142.8415242556
 20
193.6759874502
 10
-140.4268097106
 20
191.8243542591
 10
-137.8476571265
 20
190.0871321837
 10
-135.1148847464
 20
188.4716078917
 10
-132.2399571512
 20
186.9845465103
 10
-129.2349293802
 20
185.6322065274
 10
-126.1124059532
 20
184.4202354828
 10
-122.8854868535
 20
183.3537146727
 10
-119.5677041981
 20
182.4371442477
 10
-116.172973809
 20
181.6743538061
 10
-112.7155365396
 20
181.0685321966
 10
-109.2098921511
 20
180.6222424189
 10
-105.6707443643
 20
180.3373322169
 10
-102.1129390431
 20
180.2150234858
 10
-98.5513979543
 20
180.255807964
 10
-95.0010598611
 20
180.4595217387
 10
-91.4768155638
 20
180.8253154436
 10
-87.99344748
 20
181.3516393582
 10
-84.5655657325
 20
182.0363030115
 10
-81.2075480792
 20
182.8764304797
 10
-77.9334798429
 20
183.8684901873
 10
-74.7570924435
 20
185.0083396117
 10
-71.6917112443
 20
186.2911656777
 10
-68.7501903597
 20
187.7116188685
 10
-65.944867951
 20
189.2637238184
 10
-63.287514073
 20
190.9409836212
 10
-60.7892673436
 20
192.7363500277
 10
-58.4606144551
 20
194.6422979513
 10
-56.3113193933
 20
196.6508254687
 10
-54.3503936354
 20
198.7535283247
 10
-52.586070073
 20
200.941570131
 10
-51.0257396821
 20
203.205771772
 10
-49.6759515229
 20
205.5366561095
 10
-48.5423680369
 20
207.9244181792
 10
-47.6297426943
 20
210.3590742031
 10
-46.9419013683
 20
212.8303870837
 10
-46.4817311588
 20
215.3280005137
 10
-46.2511654917
 20
217.8414389769
 10
-46.2511654917
 20
220.3601524512
 10
-46.4817311588
 20
222.8735909144
 10
-46.9419013683
 20
225.3712043444
 10
-47.6297426943
 20
227.8425172249
 10
-48.5423680369
 20
230.2771732489
 10
-49.6759515229
 20
232.6649353186
 10
-51.0257396821
 20
234.995819656
 10
-52.586070073
 20
237.2600212971
 10
-54.3503936354
 20
239.4480631033
 10
-56.3113193933
 20
241.5507659594
 10
-58.4606144551
 20
243.5592934767
 10
-60.7892673436
 20
245.4652414004
 10
-63.287514073
 20
247.2606078068
 10
-65.944867951
 20
248.9378676096
 10
-68.7501903597
 20
250.4899725596
 10
-71.6917112443
 20
251.9104108492
 10
-74.7570924435
 20
253.1932518164
 10
-77.9334798429
 20
254.3331012408
 10
-81.2075480792
 20
255.3251609484
 10
-84.5655657325
 20
256.1652884165
 10
-87.99344748
 20
256.8499371687
 10
-91.4768155638
 20
257.3762759844
 10
-95.0010598611
 20
257.7420696894
 10
-98.5513979543
 20
257.9457983652
 10
-102.1129390431
 20
257.9865679423
 10
-105.6707443643
 20
257.8642592112
 10
-109.2098921511
 20
257.5793490092
 10
-112.7155365396
 20
257.1330592314
 10
-116.172973809
 20
256.5272376219
 10
-119.5677041981
 20
255.7644471804
 10
-122.8854868535
 20
254.8478767554
 10
-126.1124059532
 20
253.7813708464
 10
-129.2349293802
 20
252.5693998019
 10
-132.2399571512
 20
251.2170300165
 10
-135.1148847464
 20
249.7299835364
 10
-137.8476571265
 20
248.1144592444
 10
-140.4268097106
 20
246.3772371689
 10
-142.8415242556
 20
244.5256039778
 10
-145.0816754225
 20
242.5673380772
 10
-147.1378643039
 20
240.5106351057
 10
-149.0014668528
 20
238.3641526381
 10
-150.66466741
 20
236.1368462721
 10
-152.1204885069
 20
233.8381037394
 10
-153.3628243927
 20
231.47755119
 10
-154.3864671115
 20
229.0650680939
 10
-155.1871214036
 20
226.6108021418
 10
-155.7614270571
 20
224.1250351349
 10
-156.1069775346
 20
221.6181978861
 10
-156.2223199729
 20
219.100795714
  0
LWPOLYLINE
  5
95
330
1F
100
AcDbEntity
  8
0
  6
Continuous
 62
     7
370
    25
100
AcDbPolyline
 90
       88
 70
   128
 43
0.0
 10
-146.222322059
 20
219.100795714
 10
-146.1050163928
 20
221.3968411366
 10
-145.7537140671
 20
223.6809209267
 10
-145.1702441994
 20
225.9411141554
 10
-144.3576540772
 20
228.1656489054
 10
-143.3201719049
 20
230.3429171721
 10
-142.0632142547
 20
232.4615791718
 10
-140.593330187
 20
234.5105931441
 10
-138.9181826237
 20
236.4792600552
 10
-137.0465073708
 20
238.3573279063
 10
-134.9880609635
 20
240.1349917332
 10
-132.7535759631
 20
241.8029979149
 10
-130.3547032151
 20
243.3526441733
 10
-127.8039466563
 20
244.7758540789
 10
-125.1146055732
 20
246.0652068535
 10
-122.3007000956
 20
247.2139820734
 10
-119.3769022796
 20
248.2161745707
 10
-116.3584550816
 20
249.06658384
 10
-113.2610950593
 20
249.7607693354
 10
-110.100971346
 20
250.2950951735
 10
-106.8945571754
 20
250.6668195406
 10
-103.6585711848
 20
250.8739456812
 10
-100.4098835259
 20
250.915430514
 10
-97.1654316384
 20
250.7910356203
 10
-93.9421302613
 20
250.5014166514
 10
-90.7567849356
 20
250.0481233279
 10
-87.6260016087
 20
249.4334504286
 10
-84.5661040369
 20
248.6606613079
 10
-81.593042982
 20
247.733749477
 10
-78.7223193768
 20
246.6575578133
 10
-75.9689014379
 20
245.4377040545
 10
-73.3471445713
 20
244.0805360953
 10
-70.8707131419
 20
242.5931319872
 10
-68.5525227312
 20
240.9832552353
 10
-66.4046581808
 20
239.2592951933
 10
-64.4383158508
 20
237.4302372614
 10
-62.6637477401
 20
235.5056181828
 10
-61.0902074698
 20
233.4954664389
 10
-59.7258944038
 20
231.4102724472
 10
-58.5779275719
 20
229.2609140555
 10
-57.6522897903
 20
227.0585671345
 10
-56.9538015846
 20
224.8147353808
 10
-56.4861137394
 20
222.5411162058
 10
-56.2516551439
 20
220.2495709339
 10
-56.2516551439
 20
217.9520204941
 10
-56.4861137394
 20
215.6604752222
 10
-56.9538015846
 20
213.3868560473
 10
-57.6522897903
 20
211.1430242935
 10
-58.5779275719
 20
208.9406773726
 10
-59.7258944038
 20
206.7913189808
 10
-61.0902074698
 20
204.7061249892
 10
-62.6637477401
 20
202.6959732453
 10
-64.4383158508
 20
200.7713541666
 10
-66.4046581808
 20
198.9422962347
 10
-68.5525227312
 20
197.2183361927
 10
-70.8707131419
 20
195.6084594408
 10
-73.3471445713
 20
194.1210553328
 10
-75.9689014379
 20
192.7638873736
 10
-78.7223193768
 20
191.5440336148
 10
-81.593042982
 20
190.467841951
 10
-84.5661040369
 20
189.5409450213
 10
-87.6260016087
 20
188.7681409994
 10
-90.7567849356
 20
188.1534830014
 10
-93.9421302613
 20
187.7001747767
 10
-97.1654316384
 20
187.4105707089
 10
-100.4098835259
 20
187.2861758152
 10
-103.6585711848
 20
187.327660648
 10
-106.8945571754
 20
187.5347867886
 10
-110.100971346
 20
187.9064962546
 10
-113.2610950593
 20
188.4408220927
 10
-116.3584550816
 20
189.135007588
 10
-119.3769022796
 20
189.9854168574
 10
-122.3007000956
 20
190.9876093546
 10
-125.1146055732
 20
192.1363845745
 10
-127.8039466563
 20
193.4257373492
 10
-130.3547032151
 20
194.8489472548
 10
-132.7535759631
 20
196.3985935131
 10
-134.9880609635
 20
198.0665996949
 10
-137.0465073708
 20
199.844278423
 10
-138.9181826237
 20
201.7223313729
 10
-140.593330187
 20
203.690998284
 10
-142.0632142547
 20
205.7400122563
 10
-143.3201719049
 20
207.858674256
 10
-144.3576540772
 20
210.0359425227
 10
-145.1702441994
 20
212.2604772726
 10
-145.7537140671
 20
214.5206705014
 10
-146.1050163928
 20
216.8047502915
 10
-146.222322059
 20
219.100795714
  0
LINE
  5
96
330
1F
100
AcDbEntity
  8
0
  6
Continuous
 62
     7
370
    25
100
AcDbLine
 10
-156.2223199729
 20
-0.8992030939
 30
0.0
 11
-46.2223205689
 21
-0.8992030939
 31
0.0
  0
LWPOLYLINE
  5
97
330
1F
100
AcDbEntity
  8
0
  6
Continuous
 62
     1
370
    25
100
AcDbPolyline
 90
       26
 70
   128
 43
0.0
 10
-101.2223202709
 20
104.3190509359
 10
-97.6621802404
 20
104.4006124417
 10
-94.1169725705
 20
104.6449542323
 10
-90.6015679214
 20
105.0510481278
 10
-87.1307093624
 20
105.6171953956
 10
-83.7189562592
 20
106.3410193006
 10
-80.3806193147
 20
107.2194874564
 10
-77.1296981696
 20
108.2489043752
 10
-73.9798311118
 20
109.4249636213
 10
-70.9442280207
 20
110.7427329103
 10
-68.0356200758
 20
112.1966764609
 10
-65.2662094656
 20
113.7806996981
 10
-62.6476135079
 20
115.4881641547
 10
-60.1908106331
 20
117.311902372
 10
-57.9061124448
 20
119.2442626039
 10
-55.803092939
 20
121.2771460692
 10
-53.8905773286
 20
123.4020218531
 10
-52.1765898887
 20
125.6099716107
 10
-50.6683167044
 20
127.891756622
 10
-49.3720833186
 20
130.2377805392
 10
-48.2933323804
 20
132.6382085959
 10
-47.4365789417
 20
135.0829974095
 10
-46.8054216329
 20
137.5618651787
 10
-46.4025091354
 20
140.0644108931
 10
-46.2295327309
 20
142.5801590363
 10
-46.2223205689
 20
143.2099268118
  0
LWPOLYLINE
  5
98
330
1F
100
AcDbEntity
  8
0
  6
Continuous
 62
     1
370
    25
100
AcDbPolyline
 90
       26
 70
   128
 43
0.0
 10
-156.2223199729
 20
143.2099268118
 10
-156.2151078108
 20
142.5801590363
 10
-156.0421314064
 20
140.0644108931
 10
-155.6392189089
 20
137.5618651787
 10
-155.0080616001
 20
135.0829974095
 10
-154.1513081614
 20
132.6382085959
 10
-153.0725572232
 20
130.2377805392
 10
-151.7763238374
 20
127.891756622
 10
-150.2680506531
 20
125.6099716107
 10
-148.5540632132
 20
123.4020218531
 10
-146.6415476028
 20
121.2771460692
 10
-144.538528097
 20
119.2442626039
 10
-142.2538299087
 20
117.311902372
 10
-139.7970270339
 20
115.4881641547
 10
-137.1784310762
 20
113.7806996981
 10
-134.409020466
 20
112.1966764609
 10
-131.5004125211
 20
110.7427329103
 10
-128.46480943
 20
109.4249636213
 10
-125.3149423722
 20
108.2489043752
 10
-122.0640212271
 20
107.2194874564
 10
-118.7256842825
 20
106.3410193006
 10
-115.3139311794
 20
105.6171953956
 10
-111.8430726204
 20
105.0510481278
 10
-108.3276679713
 20
104.6449542323
 10
-104.7824603013
 20
104.4006124417
 10
-101.2223202709
 20
104.3190509359
  0
LINE
  5
99
330
1F
100
AcDbEntity
  8
0
  6
Continuous
 62
     1
370
    25
100
AcDbLine
 10
-101.2223202709
 20
104.3190509359
 30
0.0
 11
-46.2223205689
 21
104.3190509359
 31
0.0
  0
LINE
  5
9A
330
1F
100
AcDbEntity
  8
0
  6
Continuous
 62
     1
370
    25
100
AcDbLine
 10
-156.2223199729
 20
104.3190509359
 30
0.0
 11
-101.2223202709
 21
104.3190509359
 31
0.0
  0
LINE
  5
9B
330
1F
100
AcDbEntity
  8
0
  6
Continuous
 62
     7
370
    25
100
AcDbLine
 10
335.4977789516
 20
104.3190509359
 30
0.0
 11
335.4977789516
 21
-0.8992030939
 31
0.0
  0
LINE
  5
9C
330
1F
100
AcDbEntity
  8
0
  6
Continuous
 62
     7
370
    25
100
AcDbLine
 10
445.4977783556
 20
-0.8992030939
 30
0.0
 11
445.4977783556
 21
104.3190509359
 31
0.0
  0
LINE
  5
9D
330
1F
100
AcDbEntity
  8
0
  6
Continuous
 62
     7
370
    25
100
AcDbLine
 10
445.4977783556
 20
104.3190509359
 30
0.0
 11
445.4977783556
 21
143.2099268118
 31
0.0
  0
LINE
  5
9E
330
1F
100
AcDbEntity
  8
0
  6
Continuous
 62
     7
370
    25
100
AcDbLine
 10
335.4977789516
 20
143.2099268118
 30
0.0
 11
335.4977789516
 21
104.3190509359
 31
0.0
  0
LINE
  5
9F
330
1F
100
AcDbEntity
  8
0
  6
Continuous
 62
     7
370
    25
100
AcDbLine
 10
335.4977789516
 20
219.100795714
 30
0.0
 11
335.4977789516
 21
143.2099268118
 31
0.0
  0
LINE
  5
A0
330
1F
100
AcDbEntity
  8
0
  6
Continuous
 62
     7
370
    25
100
AcDbLine
 10
445.4977783556
 20
143.2099268118
 30
0.0
 11
445.4977783556
 21
219.100795714
 31
0.0
  0
LINE
  5
A1
330
1F
100
AcDbEntity
  8
0
  6
Continuous
 62
     7
370
    25
100
AcDbLine
 10
335.4977789516
 20
-0.8992030939
 30
0.0
 11
445.4977783556
 21
-0.8992030939
 31
0.0
  0
LWPOLYLINE
  5
A2
330
1F
100
AcDbEntity
  8
0
  6
Continuous
 62
     7
370
    25
100
AcDbPolyline
 90
       50
 70
   128
 43
0.0
 10
335.4977789516
 20
219.100795714
 10
335.5266238744
 20
220.3601524512
 10
335.7571895416
 20
222.8735909144
 10
336.217359751
 20
225.3712043444
 10
336.905201077
 20
227.8425172249
 10
337.8178264196
 20
230.2771732489
 10
338.9514099057
 20
232.6649353186
 10
340.3011980648
 20
234.995819656
 10
341.8615284557
 20
237.2600212971
 10
343.6258520181
 20
239.4480631033
 10
345.586777776
 20
241.5507659594
 10
347.7360728378
 20
243.5592934767
 10
350.0647257264
 20
245.4652414004
 10
352.5629724557
 20
247.2606078068
 10
355.2203263338
 20
248.9378676096
 10
358.0256487424
 20
250.4899725596
 10
360.9671696271
 20
251.9104108492
 10
364.0325508262
 20
253.1932518164
 10
367.2089382256
 20
254.3331012408
 10
370.483006462
 20
255.3251609484
 10
373.8410241152
 20
256.1652884165
 10
377.2689058627
 20
256.8499371687
 10
380.7522739465
 20
257.3762759844
 10
384.2765182438
 20
257.7420696894
 10
387.826856337
 20
257.9457983652
 10
391.3883974259
 20
257.9865679423
 10
394.946202747
 20
257.8642592112
 10
398.4853505338
 20
257.5793490092
 10
401.9909949223
 20
257.1330592314
 10
405.4484321917
 20
256.5272376219
 10
408.8431625808
 20
255.7644471804
 10
412.1609452362
 20
254.8478767554
 10
415.3878643359
 20
253.7813708464
 10
418.5103877629
 20
252.5693998019
 10
421.5154155339
 20
251.2170300165
 10
424.3903431292
 20
249.7299835364
 10
427.1231155093
 20
248.1144592444
 10
429.7022680933
 20
246.3772371689
 10
432.1169826384
 20
244.5256039778
 10
434.3571338053
 20
242.5673380772
 10
436.4133226867
 20
240.5106351057
 10
438.2769252355
 20
238.3641526381
 10
439.9401257927
 20
236.1368462721
 10
441.3959468896
 20
233.8381037394
 10
442.6382827754
 20
231.47755119
 10
443.6619254942
 20
229.0650680939
 10
444.4625797863
 20
226.6108021418
 10
445.0368854399
 20
224.1250351349
 10
445.3824359174
 20
221.6181978861
 10
445.4977783556
 20
219.100795714
  0
LINE
  5
A3
330
1F
100
AcDbEntity
  8
0
  6
Continuous
 62
     1
370
    25
100
AcDbLine
 10
335.4977789516
 20
104.3190509359
 30
0.0
 11
445.4977783556
 21
104.3190509359
 31
0.0
  0
LWPOLYLINE
  5
A4
330
1F
100
AcDbEntity
  8
0
  6
Continuous
 62
     1
370
    25
100
AcDbPolyline
 90
       50
 70
   128
 43
0.0
 10
335.4977789516
 20
143.2099268118
 10
335.5626697833
 20
145.098544685
 10
335.8507651086
 20
147.6090178171
 10
336.3680738206
 20
150.1010433117
 10
337.1124166245
 20
152.5641456524
 10
338.0806754525
 20
154.9880281369
 10
339.2687934632
 20
157.3624983708
 10
340.6717824931
 20
159.6776172797
 10
342.2837565834
 20
161.9236693064
 10
344.0979617829
 20
164.091222016
 10
346.1067798729
 20
166.1711857001
 10
348.3017916973
 20
168.1548431794
 10
350.6737846131
 20
170.0338796059
 10
353.2128158207
 20
171.8004122654
 10
355.908234715
 20
173.4470203797
 10
358.7487313147
 20
174.966804711
 10
361.7223958666
 20
176.3533875624
 10
364.8167542363
 20
177.6009425799
 10
368.0188275124
 20
178.7042692581
 10
371.3151860232
 20
179.6587035338
 10
374.6920014913
 20
180.4602816979
 10
378.1351131569
 20
181.1056062857
 10
381.6300780694
 20
181.5919801871
 10
385.1622367459
 20
181.9173619429
 10
388.7167746383
 20
182.0803955475
 10
392.278782669
 20
182.0803955475
 10
395.8333205613
 20
181.9173619429
 10
399.3654792378
 20
181.5919801871
 10
402.8604441504
 20
181.1056062857
 10
406.3035558159
 20
180.4602816979
 10
409.680371284
 20
179.6587035338
 10
412.9767297949
 20
178.7042692581
 10
416.1788030709
 20
177.6009425799
 10
419.2731614406
 20
176.3533875624
 10
422.2468259926
 20
174.966804711
 10
425.0873225923
 20
173.4470203797
 10
427.7827414865
 20
171.8004122654
 10
430.3217726941
 20
170.0338796059
 10
432.69376561
 20
168.1548431794
 10
434.8887774343
 20
166.1711857001
 10
436.8975955243
 20
164.091222016
 10
438.7118007238
 20
161.9236693064
 10
440.3237748141
 20
159.6776172797
 10
441.726763844
 20
157.3624983708
 10
442.9148818548
 20
154.9880281369
 10
443.8831406827
 20
152.5641456524
 10
444.6274834866
 20
150.1010433117
 10
445.1447921987
 20
147.6090178171
 10
445.4328875239
 20
145.098544685
 10
445.4977783556
 20
143.2099268118
  0
LINE
  5
A5
330
1F
100
AcDbEntity
  8
0
  6
Continuous
 62
     7
370
    25
100
AcDbLine
 10
216.8778321691
 20
443.1745154004
 30
0.0
 11
140.9869595416
 21
443.1745154004
 31
0.0
  0
LINE
  5
A6
330
1F
100
AcDbEntity
  8
0
  6
Continuous
 62
     7
370
    25
100
AcDbLine
 10
140.9869595416
 20
333.1745159964
 30
0.0
 11
216.8778321691
 21
333.1745159964
 31
0.0
  0
LINE
  5
A7
330
1F
100
AcDbEntity
  8
0
  6
Continuous
 62
     7
370
    25
100
AcDbLine
 10
140.9869595416
 20
443.1745154004
 30
0.0
 11
124.8778319902
 21
443.1745154004
 31
0.0
  0
LINE
  5
A8
330
1F
100
AcDbEntity
  8
0
  6
Continuous
 62
     7
370
    25
100
AcDbLine
 10
124.8778319902
 20
333.1745159964
 30
0.0
 11
140.9869595416
 21
333.1745159964
 31
0.0
  0
CIRCLE
  5
A9
330
1F
100
AcDbEntity
  8
0
  6
Continuous
 62
     7
370
    25
100
AcDbCircle
 10
124.8778319902
 20
388.1745156984
 30
0.0
 40
45.0
  0
CIRCLE
  5
AA
330
1F
100
AcDbEntity
  8
0
  6
Continuous
 62
     7
370
    25
100
AcDbCircle
 10
124.8778319902
 20
388.1745156984
 30
0.0
 40
55.0
  0
LWPOLYLINE
  5
AB
330
1F
100
AcDbEntity
  8
0
  6
Continuous
 62
     7
370
    25
100
AcDbPolyline
 90
       50
 70
   128
 43
0.0
 10
216.8778321691
 20
443.1745154004
 10
219.3952343411
 20
443.0591729621
 10
221.9020715899
 20
442.7136224846
 10
224.3878385968
 20
442.1393168311
 10
226.8421045489
 20
441.338662539
 10
229.2545801945
 20
440.3150198202
 10
231.6151401944
 20
439.0726839344
 10
233.9138901777
 20
437.6168628375
 10
236.1411816425
 20
435.9536622803
 10
238.2876790113
 20
434.0900597314
 10
240.3443745322
 20
432.03387085
 10
242.3026404328
 20
429.7937196831
 10
244.1542661734
 20
427.3790051381
 10
245.8914882488
 20
424.799852554
 10
247.5070199914
 20
422.0670801739
 10
248.9940739222
 20
419.1921525787
 10
250.3464288063
 20
416.1871248077
 10
251.5583998508
 20
413.0646013807
 10
252.6249057598
 20
409.837682281
 10
253.541491086
 20
406.5198996256
 10
254.3042815275
 20
403.1251692365
 10
254.9100882359
 20
399.6677319671
 10
255.3563929148
 20
396.1620875786
 10
255.6412882156
 20
392.6229397918
 10
255.7636118479
 20
389.0651344706
 10
255.7228273697
 20
385.5035933818
 10
255.5190986939
 20
381.9532552886
 10
255.15331989
 20
378.4290109913
 10
254.6269810743
 20
374.9456429075
 10
253.942317421
 20
371.51776116
 10
253.1021899529
 20
368.1597435067
 10
252.1101302452
 20
364.8856752704
 10
250.970295722
 20
361.709287871
 10
249.6874547548
 20
358.6439066718
 10
248.2670090146
 20
355.7023857872
 10
246.7149040647
 20
352.8970633785
 10
245.0376442618
 20
350.2397095005
 10
243.2422778554
 20
347.7414627711
 10
241.3363299317
 20
345.4128098826
 10
239.3277949638
 20
343.2635148208
 10
237.2250995584
 20
341.3025890629
 10
235.0370577521
 20
339.5382655005
 10
232.7728486605
 20
337.9779351096
 10
230.4419717736
 20
336.6281469504
 10
228.0542022533
 20
335.4945634644
 10
225.6195536799
 20
334.5819381218
 10
223.1482407994
 20
333.8940967958
 10
220.6506273694
 20
333.4339265863
 10
218.1371889062
 20
333.2033609192
 10
216.8778321691
 20
333.1745159964
  0
LWPOLYLINE
  5
AC
330
1F
100
AcDbEntity
  8
0
  6
Continuous
 62
     1
370
    25
100
AcDbPolyline
 90
       26
 70
   128
 43
0.0
 10
179.8778316922
 20
388.1745156984
 10
179.7962701864
 20
384.6143756679
 10
179.551932121
 20
381.069167998
 10
179.1458345003
 20
377.5537633489
 10
178.5796872325
 20
374.0829047899
 10
177.8558633275
 20
370.6711516867
 10
176.9773988969
 20
367.3328147422
 10
175.9479782529
 20
364.0818935971
 10
174.7719152815
 20
360.9320265393
 10
173.4541497178
 20
357.8964234482
 10
172.0002061672
 20
354.9878155033
 10
170.4161792047
 20
352.2184048931
 10
168.7087184734
 20
349.5998089354
 10
166.8849839814
 20
347.1430060606
 10
164.9526237495
 20
344.8583078723
 10
162.9197402842
 20
342.7552883665
 10
160.7948645003
 20
340.8427727561
 10
158.5869072921
 20
339.1287853162
 10
156.3051297314
 20
337.6205121319
 10
153.9591039516
 20
336.3242787461
 10
151.5586684443
 20
335.2455278079
 10
149.1138908066
 20
334.3887743692
 10
146.6350249
 20
333.7576170604
 10
144.1324698724
 20
333.3547045629
 10
141.6167217292
 20
333.1817281584
 10
140.9869595416
 20
333.1745159964
  0
LWPOLYLINE
  5
AD
330
1F
100
AcDbEntity
  8
0
  6
Continuous
 62
     1
370
    25
100
AcDbPolyline
 90
       26
 70
   128
 43
0.0
 10
140.9869595416
 20
443.1745154004
 10
141.6167217292
 20
443.1673032384
 10
144.1324698724
 20
442.9943268339
 10
146.6350249
 20
442.5914143364
 10
149.1138908066
 20
441.9602570276
 10
151.5586684443
 20
441.1035035889
 10
153.9591039516
 20
440.0247526507
 10
156.3051297314
 20
438.7285192649
 10
158.5869072921
 20
437.2202460806
 10
160.7948645003
 20
435.5062586407
 10
162.9197402842
 20
433.5937430303
 10
164.9526237495
 20
431.4907235245
 10
166.8849839814
 20
429.2060253362
 10
168.7087184734
 20
426.7492224614
 10
170.4161792047
 20
424.1306265037
 10
172.0002061672
 20
421.3612158935
 10
173.4541497178
 20
418.4526079486
 10
174.7719152815
 20
415.4170048575
 10
175.9479782529
 20
412.2671377997
 10
176.9773988969
 20
409.0162166546
 10
177.8558633275
 20
405.67787971
 10
178.5796872325
 20
402.2661266069
 10
179.1458345003
 20
398.7952680479
 10
179.551932121
 20
395.2798633988
 10
179.7962701864
 20
391.7346557289
 10
179.8778316922
 20
388.1745156984
  0
LWPOLYLINE
  5
AE
330
1F
100
AcDbEntity
  8
0
  6
Continuous
 62
     1
370
    25
100
AcDbPolyline
 90
       40
 70
   128
 43
0.0
 10
134.3143396996
 20
432.1739752929
 10
134.1466411002
 20
432.1224396269
 10
131.9221072815
 20
431.3098495047
 10
129.7448329612
 20
430.2723673324
 10
127.6261695645
 20
429.0154096822
 10
125.5771634503
 20
427.5455256145
 10
123.6084968302
 20
425.8703780512
 10
121.7304334029
 20
423.9987027983
 10
119.9527644537
 20
421.940256391
 10
118.284758272
 20
419.7057713906
 10
116.7351110823
 20
417.3068986426
 10
115.3119011767
 20
414.7561420838
 10
114.0225493334
 20
412.0668010007
 10
112.8737778388
 20
409.2528955232
 10
111.871575097
 20
406.3290977071
 10
111.021166759
 20
403.3106505091
 10
110.3269859202
 20
400.2132904868
 10
109.7926517002
 20
397.0531667735
 10
109.4209506161
 20
393.8467526029
 10
109.2138207502
 20
390.6107666123
 10
109.1723396428
 20
387.3620789534
 10
109.2967270858
 20
384.1176270659
 10
109.5863311536
 20
380.8943256888
 10
110.0396440349
 20
377.7089803632
 10
110.654302033
 20
374.5781970362
 10
111.4271004669
 20
371.5182994644
 10
112.3540104352
 20
368.5452384095
 10
113.4301993049
 20
365.6745148043
 10
114.650056789
 20
362.9210968654
 10
116.0072219543
 20
360.2993399988
 10
117.4946200087
 20
357.8229085694
 10
119.104496295
 20
355.5047181587
 10
120.828457734
 20
353.3568536083
 10
122.6575161315
 20
351.3905112784
 10
124.582135734
 20
349.6159431676
 10
126.5922825303
 20
348.0424028973
 10
128.6774765219
 20
346.6780898313
 10
130.8268463224
 20
345.5301229994
 10
133.0291862584
 20
344.6044852178
 10
134.3143396996
 20
344.1750561039
  0
INSERT
  5
BA
330
1F
100
AcDbEntity
  8
FORMAT
 62
     7
100
AcDbBlockReference
  2
SW_CENTERMARKSYMBOL_0
 10
124.8778319902
 20
388.1745156984
 30
0.0
  0
LINE
  5
BB
330
1F
100
AcDbEntity
  8
0
  6
Continuous
 62
     7
370
    25
100
AcDbLine
 10
216.8778321691
 20
-120.6606342331
 30
0.0
 11
140.9869595416
 21
-120.6606342331
 31
0.0
  0
LINE
  5
BC
330
1F
100
AcDbEntity
  8
0
  6
Continuous
 62
     7
370
    25
100
AcDbLine
 10
140.9869595416
 20
-230.6606336371
 30
0.0
 11
216.8778321691
 21
-230.6606336371
 31
0.0
  0
LINE
  5
BD
330
1F
100
AcDbEntity
  8
0
  6
Continuous
 62
     7
370
    25
100
AcDbLine
 10
124.8778319902
 20
-230.6606336371
 30
0.0
 11
140.9869595416
 21
-230.6606336371
 31
0.0
  0
LINE
  5
BE
330
1F
100
AcDbEntity
  8
0
  6
Continuous
 62
     7
370
    25
100
AcDbLine
 10
140.9869595416
 20
-120.6606342331
 30
0.0
 11
124.8778319902
 21
-120.6606342331
 31
0.0
  0
LWPOLYLINE
  5
BF
330
1F
100
AcDbEntity
  8
0
  6
Continuous
 62
     7
370
    25
100
AcDbPolyline
 90
       98
 70
   128
 43
0.0
 10
216.8778321691
 20
-230.6606336371
 10
219.3952343411
 20
-230.5452911989
 10
221.9020715899
 20
-230.1997407213
 10
224.3878385968
 20
-229.6254350678
 10
226.8421045489
 20
-228.8247807757
 10
229.2545801945
 20
-227.8011380569
 10
231.6151401944
 20
-226.5588021711
 10
233.9138901777
 20
-225.1029810742
 10
236.1411816425
 20
-223.439780517
 10
238.2876790113
 20
-221.5761779681
 10
240.3443745322
 20
-219.5199890868
 10
242.3026404328
 20
-217.2798379198
 10
244.1542661734
 20
-214.8651233748
 10
245.8914882488
 20
-212.2859707907
 10
247.5070199914
 20
-209.5531984106
 10
248.9940739222
 20
-206.6782708154
 10
250.3464288063
 20
-203.6732430444
 10
251.5583998508
 20
-200.5507196174
 10
252.6249057598
 20
-197.3238005177
 10
253.541491086
 20
-194.0060178623
 10
254.3042815275
 20
-190.6112874732
 10
254.9100882359
 20
-187.1538502038
 10
255.3563929148
 20
-183.6482058153
 10
255.6412882156
 20
-180.1090580285
 10
255.7636118479
 20
-176.5512527073
 10
255.7228273697
 20
-172.9897116185
 10
255.5190986939
 20
-169.4393735253
 10
255.15331989
 20
-165.915129228
 10
254.6269810743
 20
-162.4317611442
 10
253.942317421
 20
-159.0038793967
 10
253.1021899529
 20
-155.6458617435
 10
252.1101302452
 20
-152.3717935071
 10
250.970295722
 20
-149.1954061077
 10
249.6874547548
 20
-146.1300249085
 10
248.2670090146
 20
-143.1885040239
 10
246.7149040647
 20
-140.3831816152
 10
245.0376442618
 20
-137.7258277372
 10
243.2422778554
 20
-135.2275810078
 10
241.3363299317
 20
-132.8989281193
 10
239.3277949638
 20
-130.7496330575
 10
237.2250995584
 20
-128.7887072996
 10
235.0370577521
 20
-127.0243837372
 10
232.7728486605
 20
-125.4640533463
 10
230.4419717736
 20
-124.1142651871
 10
228.0542022533
 20
-122.9806817011
 10
225.6195536799
 20
-122.0680563585
 10
223.1482407994
 20
-121.3802150325
 10
220.6506273694
 20
-120.9200448231
 10
218.1371889062
 20
-120.6894791559
 10
215.6184754319
 20
-120.6894791559
 10
213.1050369687
 20
-120.9200448231
 10
210.6074235387
 20
-121.3802150325
 10
208.1361106582
 20
-122.0680563585
 10
205.7014620848
 20
-122.9806817011
 10
203.3136925645
 20
-124.1142651871
 10
200.9828156776
 20
-125.4640533463
 10
198.718606586
 20
-127.0243837372
 10
196.5305647798
 20
-128.7887072996
 10
194.4278693743
 20
-130.7496330575
 10
192.4193344064
 20
-132.8989281193
 10
190.5133864827
 20
-135.2275810078
 10
188.7180200763
 20
-137.7258277372
 10
187.0407639987
 20
-140.3831816152
 10
185.4886553235
 20
-143.1885040239
 10
184.068205858
 20
-146.1300249085
 10
182.7853723414
 20
-149.1954061077
 10
181.6455303676
 20
-152.3717935071
 10
180.65347066
 20
-155.6458617435
 10
179.8133431919
 20
-159.0038793967
 10
179.1286795385
 20
-162.4317611442
 10
178.6023481734
 20
-165.915129228
 10
178.2365581937
 20
-169.4393735253
 10
178.032844419
 20
-172.9897116185
 10
177.9920599408
 20
-176.5512527073
 10
178.1143723972
 20
-180.1090580285
 10
178.3992751486
 20
-183.6482058153
 10
178.8455686517
 20
-187.1538502038
 10
179.4513828106
 20
-190.6112874732
 10
180.2141807027
 20
-194.0060178623
 10
181.130754853
 20
-197.3238005177
 10
182.1972644873
 20
-200.5507196174
 10
183.4092355318
 20
-203.6732430444
 10
184.7615866907
 20
-206.6782708154
 10
186.248648072
 20
-209.5531984106
 10
187.8641760893
 20
-212.2859707907
 10
189.6013981648
 20
-214.8651233748
 10
191.4530239053
 20
-217.2798379198
 10
193.4112898059
 20
-219.5199890868
 10
195.4679853268
 20
-221.5761779681
 10
197.6144826956
 20
-223.439780517
 10
199.8417741604
 20
-225.1029810742
 10
202.1405241437
 20
-226.5588021711
 10
204.5010841436
 20
-227.8011380569
 10
206.9135597892
 20
-228.8247807757
 10
209.3678257413
 20
-229.6254350678
 10
211.8535927482
 20
-230.1997407213
 10
214.360429997
 20
-230.5452911989
 10
216.8778321691
 20
-230.6606336371
  0
LWPOLYLINE
  5
C0
330
1F
100
AcDbEntity
  8
0
  6
Continuous
 62
     7
370
    25
100
AcDbPolyline
 90
       88
 70
   128
 43
0.0
 10
216.8778321691
 20
-220.6606357232
 10
214.5817867465
 20
-220.543330057
 10
212.297714407
 20
-220.1920277313
 10
210.0375137277
 20
-219.6085578636
 10
207.8129789777
 20
-218.7959677414
 10
205.6357032604
 20
-217.7584855691
 10
203.5170412607
 20
-216.5015279189
 10
201.468034739
 20
-215.0316438512
 10
199.4993678279
 20
-213.3564962879
 10
197.6213074274
 20
-211.484821035
 10
195.8436361499
 20
-209.4263746277
 10
194.1756299682
 20
-207.1918896273
 10
192.6259837098
 20
-204.7930168793
 10
191.2027738042
 20
-202.2422603205
 10
189.9134210296
 20
-199.5529192374
 10
188.7646532602
 20
-196.7390137599
 10
187.7624458618
 20
-193.8152159438
 10
186.9120403178
 20
-190.7967687458
 10
186.2178585477
 20
-187.6994087235
 10
185.683525259
 20
-184.5392850102
 10
185.3118232436
 20
-181.3328708396
 10
185.1046933777
 20
-178.096884849
 10
185.0632122703
 20
-174.8481971901
 10
185.1875997133
 20
-171.6037453026
 10
185.4772037811
 20
-168.3804439255
 10
185.9305157311
 20
-165.1950985999
 10
186.5451737292
 20
-162.0643152729
 10
187.3179740257
 20
-159.0044177011
 10
188.2448858566
 20
-156.0313566462
 10
189.3210700698
 20
-153.160633041
 10
190.5409312792
 20
-150.4072151021
 10
191.8980917878
 20
-147.7854582355
 10
193.3854958959
 20
-145.3090268061
 10
194.9953726478
 20
-142.9908363954
 10
196.7193326898
 20
-140.842971845
 10
198.5483906217
 20
-138.8766295151
 10
200.4730097003
 20
-137.1020614044
 10
202.4831539936
 20
-135.528521134
 10
204.5683479853
 20
-134.164208068
 10
206.7177212782
 20
-133.0162412361
 10
208.9200607486
 20
-132.0906034545
 10
211.1638850517
 20
-131.3921152488
 10
213.4375042267
 20
-130.9244274036
 10
215.7290569491
 20
-130.6899688081
 10
218.026607389
 20
-130.6899688081
 10
220.3181601114
 20
-130.9244274036
 10
222.5917792864
 20
-131.3921152488
 10
224.8356035895
 20
-132.0906034545
 10
227.0379430599
 20
-133.0162412361
 10
229.1873163528
 20
-134.164208068
 10
231.2725103445
 20
-135.528521134
 10
233.2826546378
 20
-137.1020614044
 10
235.2072737165
 20
-138.8766295151
 10
237.0363316484
 20
-140.842971845
 10
238.7602916904
 20
-142.9908363954
 10
240.3701684423
 20
-145.3090268061
 10
241.8575725503
 20
-147.7854582355
 10
243.2147330589
 20
-150.4072151021
 10
244.4345942683
 20
-153.160633041
 10
245.5107784815
 20
-156.0313566462
 10
246.4376903124
 20
-159.0044177011
 10
247.2104868836
 20
-162.0643152729
 10
247.8251448817
 20
-165.1950985999
 10
248.278460557
 20
-168.3804439255
 10
248.5680646248
 20
-171.6037453026
 10
248.6924520679
 20
-174.8481971901
 10
248.6509672351
 20
-178.096884849
 10
248.4438410945
 20
-181.3328708396
 10
248.0721390791
 20
-184.5392850102
 10
247.5378057904
 20
-187.6994087235
 10
246.8436277456
 20
-190.7967687458
 10
245.9932184763
 20
-193.8152159438
 10
244.9910110779
 20
-196.7390137599
 10
243.8422433085
 20
-199.5529192374
 10
242.5528905339
 20
-202.2422603205
 10
241.1296806283
 20
-204.7930168793
 10
239.5800343699
 20
-207.1918896273
 10
237.9120281882
 20
-209.4263746277
 10
236.1343569107
 20
-211.484821035
 10
234.2562965102
 20
-213.3564962879
 10
232.2876295991
 20
-215.0316438512
 10
230.2386230774
 20
-216.5015279189
 10
228.1199610777
 20
-217.7584855691
 10
225.9426853604
 20
-218.7959677414
 10
223.7181506104
 20
-219.6085578636
 10
221.4579499311
 20
-220.1920277313
 10
219.1738775916
 20
-220.543330057
 10
216.8778321691
 20
-220.6606357232
  0
ARC
  5
C1
330
1F
100
AcDbEntity
  8
0
  6
Continuous
 62
     7
370
    25
100
AcDbCircle
 10
124.8778319902
 20
-175.6606339351
 30
0.0
 40
55.0
100
AcDbArc
 50
90.0
 51
270.0
  0
LWPOLYLINE
  5
C2
330
1F
100
AcDbEntity
  8
0
  6
Continuous
 62
     1
370
    25
100
AcDbPolyline
 90
       50
 70
   128
 43
0.0
 10
140.9869595416
 20
-120.6606342331
 10
139.0983314238
 20
-120.7255250648
 10
136.5878638796
 20
-121.0136203901
 10
134.095846767
 20
-121.5309291021
 10
131.632733716
 20
-122.275271906
 10
129.2088554226
 20
-123.2435307339
 10
126.8343784366
 20
-124.4316487447
 10
124.5192623507
 20
-125.8346377746
 10
122.2732175126
 20
-127.4466118649
 10
120.1056648031
 20
-129.2608170644
 10
118.025695531
 20
-131.2696351544
 10
116.0420338608
 20
-133.4646469787
 10
114.1629992969
 20
-135.8366398946
 10
112.396474088
 20
-138.3756711022
 10
110.749866905
 20
-141.0710899965
 10
109.2300853677
 20
-143.9115865961
 10
107.8435025163
 20
-146.8852511481
 10
106.5959363229
 20
-149.9796095178
 10
105.4926152326
 20
-153.1816827939
 10
104.5381716437
 20
-156.4780413047
 10
103.7366065182
 20
-159.8548567728
 10
103.091283793
 20
-163.2979684383
 10
102.6049061663
 20
-166.7929333509
 10
102.2795188226
 20
-170.3250920274
 10
102.1164814926
 20
-173.8796299197
 10
102.1164814926
 20
-177.4416379505
 10
102.2795188226
 20
-180.9961758428
 10
102.6049061663
 20
-184.5283345193
 10
103.091283793
 20
-188.0232994319
 10
103.7366065182
 20
-191.4664110974
 10
104.5381716437
 20
-194.8432265655
 10
105.4926152326
 20
-198.1395850763
 10
106.5959363229
 20
-201.3416583524
 10
107.8435025163
 20
-204.4360167221
 10
109.2300853677
 20
-207.4096812741
 10
110.749866905
 20
-210.2501778737
 10
112.396474088
 20
-212.945596768
 10
114.1629992969
 20
-215.4846279756
 10
116.0420338608
 20
-217.8566208915
 10
118.025695531
 20
-220.0516327158
 10
120.1056648031
 20
-222.0604508058
 10
122.2732175126
 20
-223.8746560053
 10
124.5192623507
 20
-225.4866300956
 10
126.8343784366
 20
-226.8896191255
 10
129.2088554226
 20
-228.0777371362
 10
131.632733716
 20
-229.0459959642
 10
134.095846767
 20
-229.7903387681
 10
136.5878638796
 20
-230.3076474801
 10
139.0983314238
 20
-230.5957428054
 10
140.9869595416
 20
-230.6606336371
  0
INSERT
  5
CE
330
1F
100
AcDbEntity
  8
FORMAT
 62
     7
100
AcDbBlockReference
  2
SW_CENTERMARKSYMBOL_1
 10
124.8778319902
 20
-175.6606339351
 30
0.0
  0
LINE
  5
CF
330
1F
100
AcDbEntity
  8
0
  6
Continuous
 62
     7
370
    25
100
AcDbLine
 10
301.519128179
 20
-185.5801432463
 30
0.0
 11
301.519128179
 21
-271.4951418169
 31
0.0
  0
LINE
  5
D0
330
1F
100
AcDbEntity
  8
0
  6
Continuous
 62
     7
370
    25
100
AcDbLine
 10
411.519125875
 20
-271.4951418169
 30
0.0
 11
411.519125875
 21
-185.5801432463
 31
0.0
  0
LINE
  5
D1
330
1F
100
AcDbEntity
  8
0
  6
Continuous
 62
     7
370
    25
100
AcDbLine
 10
373.9415541884
 20
-26.8013910937
 30
0.0
 11
320.2786035234
 21
-119.7483448151
 31
0.0
  0
LINE
  5
D2
330
1F
100
AcDbEntity
  8
0
  6
Continuous
 62
     7
370
    25
100
AcDbLine
 10
415.5413971917
 20
-174.7483445448
 30
0.0
 11
469.2043478568
 21
-81.8013908235
 31
0.0
  0
SPLINE
  5
D3
330
1F
100
AcDbEntity
  8
0
  6
Continuous
 62
     7
370
    25
100
AcDbSpline
210
0.0
220
0.0
230
1.0
 70
     8
 71
     3
 72
    22
 73
    18
 74
     0
 42
0.000000001
 43
0.00000001
 40
0.0
 40
0.0
 40
0.0
 40
0.0
 40
0.0396120875921309
 40
0.1077355556523737
 40
0.17595650625742
 40
0.2443247474744389
 40
0.3128931873473699
 40
0.3817102838702807
 40
0.4508183511745021
 40
0.5202491898007617
 40
0.5900209358200482
 40
0.6601327569638293
 40
0.7305597950064289
 40
0.801248257842567
 40
0.8721118437890023
 40
0.9429861191191462
 40
1.0
 40
1.0
 40
1.0
 40
1.0
 10
320.2786035233596
 20
-119.7483448150537
 30
0.0
 10
319.8157198761629
 20
-120.560548109723
 30
0.0
 10
318.5567852942086
 20
-122.7695499213635
 30
0.0
 10
316.6118678621705
 20
-126.4378639547326
 30
0.0
 10
314.4833805732245
 20
-130.7666910928238
 30
0.0
 10
312.498497828738
 20
-135.1638764170785
 30
0.0
 10
310.6587120909224
 20
-139.6239809254333
 30
0.0
 10
308.9690111793033
 20
-144.1434640959887
 30
0.0
 10
307.4341691108844
 20
-148.7180585210843
 30
0.0
 10
306.0597389863884
 20
-153.3431854844446
 30
0.0
 10
304.8518406387785
 20
-158.013467024255
 30
0.0
 10
303.8170715500517
 20
-162.7224838318226
 30
0.0
 10
302.962820536409
 20
-167.4623127757594
 30
0.0
 10
302.2951345127711
 20
-172.2233872406339
 30
0.0
 10
301.825851276064
 20
-176.9925232337034
 30
0.0
 10
301.5623653173452
 20
-181.4487726559514
 30
0.0
 10
301.5324601957727
 20
-184.306249921912
 30
0.0
 10
301.5191281790358
 20
-185.5801432462668
 30
0.0
  0
SPLINE
  5
D4
330
1F
100
AcDbEntity
  8
0
  6
Continuous
 62
     7
370
    25
100
AcDbSpline
210
0.0
220
0.0
230
1.0
 70
     8
 71
     3
 72
    20
 73
    16
 74
     0
 42
0.000000001
 43
0.00000001
 40
0.0
 40
0.0
 40
0.0
 40
0.0
 40
0.0751500234812297
 40
0.1604433375041988
 40
0.2432850041147336
 40
0.3244763661610766
 40
0.4047162684088798
 40
0.4845870595067571
 40
0.5645424478809568
 40
0.6448681462209365
 40
0.7257171396293117
 40
0.8071985594337253
 40
0.8893120947024902
 40
0.9719707801363092
 40
1.0
 40
1.0
 40
1.0
 40
1.0
 10
411.5192101686945
 20
-185.6213058204113
 30
0.0
 10
411.5193571549642
 20
-185.6133163135654
 30
0.0
 10
411.5196709668108
 20
-185.5962589251045
 30
0.0
 10
411.5412225473626
 20
-185.3377406067287
 30
0.0
 10
411.5996188729588
 20
-184.9018903766256
 30
0.0
 10
411.7079868358406
 20
-184.2908759385814
 30
0.0
 10
411.8776647357969
 20
-183.5230948968167
 30
0.0
 10
412.1184058473972
 20
-182.6109142698191
 30
0.0
 10
412.4377255199962
 20
-181.5709796466104
 30
0.0
 10
412.840415675017
 20
-180.4220654905747
 30
0.0
 10
413.3287153766933
 20
-179.185911614765
 30
0.0
 10
413.9001774497114
 20
-177.885344110885
 30
0.0
 10
414.5545448590017
 20
-176.5483254348715
 30
0.0
 10
415.1090323899032
 20
-175.4924535330936
 30
0.0
 10
415.4583423692109
 20
-174.9018171395849
 30
0.0
 10
415.54679725671
 20
-174.7522517711858
 30
0.0
  0
LWPOLYLINE
  5
D5
330
1F
100
AcDbEntity
  8
0
  6
Continuous
 62
     7
370
    25
100
AcDbPolyline
 90
       98
 70
   128
 43
0.0
 10
317.6282542725
 20
-249.0439188635
 10
320.2272128502
 20
-247.6377385145
 10
322.9783943203
 20
-246.331625471
 10
325.8702562083
 20
-245.1310569322
 10
328.8906719113
 20
-244.0410687204
 10
332.0269703742
 20
-243.0662323755
 10
335.265995195
 20
-242.2106362421
 10
338.5941645516
 20
-241.4778691217
 10
341.9975173005
 20
-240.8710058263
 10
345.4617788309
 20
-240.3925904515
 10
348.972420334
 20
-240.0446295324
 10
352.5147154373
 20
-239.828583681
 10
356.0738034257
 20
-239.7453584614
 10
359.6347616804
 20
-239.795302109
 10
363.1826491437
 20
-239.9782078114
 10
366.7025892952
 20
-240.2933038244
 10
370.179817567
 20
-240.7392717194
 10
373.5997471983
 20
-241.3142418223
 10
376.9480337725
 20
-242.0158000556
 10
380.2106358037
 20
-242.8410046667
 10
383.3738647858
 20
-243.786396872
 10
386.4244582908
 20
-244.8480065598
 10
389.3496188234
 20
-246.0213838444
 10
392.1370763823
 20
-247.3016078098
 10
394.7751374396
 20
-248.6833087021
 10
397.2527423165
 20
-250.1606888868
 10
399.5594962996
 20
-251.7275529766
 10
401.6857208426
 20
-253.3773313071
 10
403.6225041918
 20
-255.1031000387
 10
405.3617202374
 20
-256.897622452
 10
406.8960709891
 20
-258.7533734688
 10
408.2191237841
 20
-260.6625672146
 10
409.3253310435
 20
-262.6171957959
 10
410.2100460773
 20
-264.6090627549
 10
410.8695665483
 20
-266.6298112025
 10
411.3011213011
 20
-268.6709679173
 10
411.5029019725
 20
-270.7239676772
 10
411.4740629914
 20
-272.7802049618
 10
411.2147202616
 20
-274.8310514407
 10
410.725966967
 20
-276.8679046351
 10
410.0098524982
 20
-278.8822244139
 10
409.0693758667
 20
-280.8655580849
 10
407.9084883397
 20
-282.8095905777
 10
406.5320552439
 20
-284.7061664927
 10
404.9458506977
 20
-286.5473296396
 10
403.156526659
 20
-288.3253591528
 10
401.1715905354
 20
-290.0327976245
 10
398.9993666585
 20
-291.6624824682
 10
396.6489633576
 20
-293.2075770933
 10
394.1302433245
 20
-294.6616032186
 10
391.4537709301
 20
-296.0184621626
 10
388.6307681021
 20
-297.2724603146
 10
385.6730774464
 20
-298.4183395481
 10
382.5931062709
 20
-299.4512943286
 10
379.4037725845
 20
-300.366990722
 10
376.1184507678
 20
-301.1615886346
 10
372.7509228402
 20
-301.8317547391
 10
369.3153158983
 20
-302.374680342
 10
365.8260336279
 20
-302.7880844253
 10
362.2977181073
 20
-303.0702356965
 10
358.7451628805
 20
-303.2199510676
 10
355.1832694926
 20
-303.236599457
 10
351.6269842697
 20
-303.1201139549
 10
348.0912140253
 20
-302.870982699
 10
344.5907957672
 20
-302.4902496353
 10
341.1404071353
 20
-301.9795145175
 10
337.7545242552
 20
-301.3409146596
 10
334.4473453462
 20
-300.5771325386
 10
331.23274199
 20
-299.6913707037
 10
328.1242011781
 20
-298.6873426519
 10
325.1347581404
 20
-297.5692614234
 10
322.276948601
 20
-296.3418181216
 10
319.5627663017
 20
-295.0101573924
 10
317.0035914679
 20
-293.5798665415
 10
314.6101559877
 20
-292.0569463094
 10
312.3925027472
 20
-290.4477813127
 10
310.3599334407
 20
-288.7591220813
 10
308.5209722683
 20
-286.9980519363
 10
306.8833274935
 20
-285.1719587145
 10
305.4538762965
 20
-283.2884986524
 10
304.2386101153
 20
-281.3555739566
 10
303.2426247672
 20
-279.3812906043
 10
302.47010201
 20
-277.3739294508
 10
301.9242805654
 20
-275.3419112541
 10
301.6074442659
 20
-273.2937594177
 10
301.5209299568
 20
-271.238061974
 10
301.6650958863
 20
-269.1834442121
 10
302.0393388277
 20
-267.1385207763
 10
302.6420901278
 20
-265.1118705751
 10
303.4708196589
 20
-263.1119949621
 10
304.5220516228
 20
-261.1472812402
 10
305.7913790397
 20
-259.2259699669
 10
307.2734756018
 20
-257.3561207388
 10
308.9621246488
 20
-255.5455741747
 10
310.8502441931
 20
-253.801925304
 10
312.9299152369
 20
-252.132488971
 10
315.1924145352
 20
-250.5442657146
 10
317.6282542725
 20
-249.0439188635
  0
LWPOLYLINE
  5
D6
330
1F
100
AcDbEntity
  8
0
  6
Continuous
 62
     7
370
    25
100
AcDbPolyline
 90
       88
 70
   128
 43
0.0
 10
324.6993206092
 20
-253.125958571
 10
322.4862225211
 20
-254.4993222003
 10
320.4505554213
 20
-255.9612938714
 10
318.6029343886
 20
-257.5042523231
 10
316.9529880024
 20
-259.1201512649
 10
315.5093240978
 20
-260.8005695587
 10
314.2794645703
 20
-262.5367427734
 10
313.2698236433
 20
-264.3196213505
 10
312.4856644046
 20
-266.1399109024
 10
311.9310764155
 20
-267.9881185929
 10
311.6089480524
 20
-269.8546116834
 10
311.5209625548
 20
-271.72965631
 10
311.6675743187
 20
-273.603478311
 10
312.0480220664
 20
-275.4663088471
 10
312.6603196277
 20
-277.3084368645
 10
313.5012809644
 20
-279.1202554762
 10
314.5665162188
 20
-280.8923205078
 10
315.8504705678
 20
-282.6153942167
 10
317.346455175
 20
-284.280490533
 10
319.0466649708
 20
-285.8789309438
 10
320.9422412146
 20
-287.4023806097
 10
323.0232981653
 20
-288.8428972163
 10
325.2789868375
 20
-290.1929708212
 10
327.6975492891
 20
-291.4455612762
 10
330.2663717177
 20
-292.5941410448
 10
332.9720640613
 20
-293.632719865
 10
335.8005186499
 20
-294.5558846912
 10
338.7369923186
 20
-295.3588197244
 10
341.766173249
 20
-296.0373419578
 10
344.8722695437
 20
-296.5879127724
 10
348.0390889104
 20
-297.0076596062
 10
351.2501163699
 20
-297.2943964837
 10
354.488614355
 20
-297.4466300986
 10
357.7376991017
 20
-297.463562855
 10
360.9804302109
 20
-297.345108074
 10
364.1999028452
 20
-297.0918839116
 10
367.3793320221
 20
-296.7052103169
 10
370.5021395423
 20
-296.1871029493
 10
373.5520488196
 20
-295.5402640547
 10
376.5131540285
 20
-294.7680638371
 10
379.3700188858
 20
-293.8745290534
 10
382.1077523831
 20
-292.8643205836
 10
384.7120759583
 20
-291.742700736
 10
387.169417503
 20
-290.5155215571
 10
389.4669610826
 20
-289.1891778806
 10
391.5927281018
 20
-287.7705848024
 10
393.5356411833
 20
-286.2671408041
 10
395.2855631869
 20
-284.6866808972
 10
396.8333785396
 20
-283.03744792
 10
398.1710134857
 20
-281.3280382687
 10
399.2914927217
 20
-279.5673631199
 10
400.1889782506
 20
-277.7646047113
 10
400.8587891381
 20
-275.929159316
 10
401.297433781
 20
-274.0705973249
 10
401.502625713
 20
-272.1986085019
 10
401.4732941406
 20
-270.3229518022
 10
401.209589212
 20
-268.4534067097
 10
400.7128925536
 20
-266.5997200142
 10
399.9857909281
 20
-264.7715541074
 10
399.0320709666
 20
-262.9784428839
 10
397.8567086313
 20
-261.2297339551
 10
396.4658336545
 20
-259.5345437893
 10
394.8666920014
 20
-257.9017117111
 10
393.0676257845
 20
-256.3397487685
 10
391.07801169
 20
-254.8567991459
 10
388.90822628
 20
-253.4605927617
 10
386.5695768049
 20
-252.158411409
 10
384.0742584801
 20
-250.9570428031
 10
381.4352803173
 20
-249.8627499303
 10
378.666400299
 20
-248.8812397072
 10
375.782056355
 20
-248.017626176
 10
372.7972817393
 20
-247.2764151074
 10
369.7276424686
 20
-246.6614678846
 10
366.5891405157
 20
-246.1759912386
 10
363.3981354434
 20
-245.8225193803
 10
360.1712686714
 20
-245.6028915704
 10
356.9253620606
 20
-245.5182544007
 10
353.6773375706
 20
-245.5690473473
 10
350.4441263808
 20
-245.7550080931
 10
347.2425898647
 20
-246.0751649244
 10
344.0894142231
 20
-246.5278504172
 10
341.0010433124
 20
-247.110703718
 10
337.9935772286
 20
-247.8206865108
 10
335.0826919653
 20
-248.6540959433
 10
332.2835696076
 20
-249.6065897177
 10
329.6107975748
 20
-250.6731986365
 10
327.0783139614
 20
-251.8483642391
 10
324.6993206092
 20
-253.125958571
  0
LWPOLYLINE
  5
D7
330
1F
100
AcDbEntity
  8
0
  6
Continuous
 62
     7
370
    25
100
AcDbPolyline
 90
       98
 70
   128
 43
0.0
 10
382.6820782681
 20
-31.8501680051
 10
384.5437098352
 20
-32.9251990927
 10
386.560652539
 20
-34.089887989
 10
388.7244506681
 20
-35.3393519219
 10
391.0260268451
 20
-36.6683492485
 10
393.4557294414
 20
-38.0713007533
 10
396.0033615541
 20
-39.5423367971
 10
398.6582442254
 20
-41.0752669008
 10
401.4092375163
 20
-42.6636770854
 10
404.2448063613
 20
-44.3009009767
 10
407.1530548124
 20
-45.9800760786
 10
410.1217839911
 20
-47.6941468159
 10
413.1385421379
 20
-49.435936019
 10
416.1906799298
 20
-51.1981281913
 10
419.2653952616
 20
-52.973331868
 10
422.349781978
 20
-54.7541138345
 10
425.4309168017
 20
-56.5329823977
 10
428.4958672356
 20
-58.30250145
 10
431.5317771737
 20
-60.055248645
 10
434.5259274875
 20
-61.7838442929
 10
437.4657386598
 20
-63.4810623808
 10
440.33888603
 20
-65.1397876107
 10
443.1333360145
 20
-66.753036306
 10
445.8373428133
 20
-68.3140761774
 10
448.4395869519
 20
-69.8163238074
 10
450.9291378262
 20
-71.2535055236
 10
453.2955480392
 20
-72.619590194
 10
455.5289204078
 20
-73.9088279126
 10
457.6198558555
 20
-75.1158415755
 10
459.5596039721
 20
-76.2355434728
 10
461.3400211963
 20
-77.2632449738
 10
462.9536449017
 20
-78.1946384644
 10
464.3937052507
 20
-79.0258041851
 10
465.6541515364
 20
-79.7532862719
 10
466.7297140857
 20
-80.3740007383
 10
467.6158726491
 20
-80.8853632234
 10
468.3089038159
 20
-81.2852190276
 10
468.8059152586
 20
-81.571899381
 10
469.1048128057
 20
-81.7441963427
 10
469.2043452226
 20
-81.801394735
 10
469.1040989435
 20
-81.7432386783
 10
468.8044848999
 20
-81.5699848193
 10
468.3067674975
 20
-81.2823643018
 10
467.6130330052
 20
-80.8815645127
 10
466.7261895555
 20
-80.3692899132
 10
465.6499566079
 20
-79.7476646955
 10
464.3888517777
 20
-79.01931643
 10
462.9481618601
 20
-78.1872924102
 10
461.3339270254
 20
-77.2550809423
 10
459.5529276479
 20
-76.226597653
 10
457.6126237197
 20
-75.1061505041
 10
455.521154851
 20
-73.8984397925
 10
453.2872954887
 20
-72.6085322888
 10
450.9204154042
 20
-71.2418323383
 10
448.4304428145
 20
-69.8040909853
 10
445.8278196012
 20
-68.3013131939
 10
443.1234617981
 20
-66.7398262881
 10
440.3287174443
 20
-65.1261643609
 10
437.4553033635
 20
-63.4670926088
 10
434.5152735544
 20
-61.7695890779
 10
431.5209586045
 20
-60.0407549318
 10
428.4849156404
 20
-58.28784639
 10
425.419883547
 20
-56.5182154115
 10
422.338714479
 20
-54.7392914466
 10
419.2543356651
 20
-52.9585380897
 10
416.1796835536
 20
-51.183402891
 10
413.1276484946
 20
-49.4213432138
 10
410.111040496
 20
-47.6797608377
 10
407.1425036123
 20
-45.9659494869
 10
404.2344948714
 20
-44.2871130866
 10
401.3992092006
 20
-42.6502615807
 10
398.6485395842
 20
-41.062282229
 10
395.9940240515
 20
-39.5298238301
 10
393.446795215
 20
-38.0593466783
 10
391.0175349136
 20
-36.6569777458
 10
388.7164361815
 20
-35.3286256138
 10
386.5531484244
 20
-34.0798423552
 10
384.5367463855
 20
-32.9158847109
 10
382.6756890693
 20
-31.8416143303
 10
380.9777782523
 20
-30.8615498671
 10
379.4501380692
 20
-29.9798004449
 10
378.0991735237
 20
-29.200066042
 10
376.9305546842
 20
-28.5256314121
 10
375.9491850729
 20
-27.9592839603
 10
375.1591740077
 20
-27.5034316187
 10
374.5638392358
 20
-27.1599826998
 10
374.1656753237
 20
-26.9303793605
 10
373.9663523404
 20
-26.8155725135
 10
373.9667105886
 20
-26.8160583332
 10
374.1667474342
 20
-26.931809819
 10
374.5656199401
 20
-27.1623817445
 10
375.1616606718
 20
-27.5067676953
 10
375.9523645258
 20
-27.9635384769
 10
376.9344177063
 20
-28.53079193
 10
378.1036977245
 20
-29.2061285977
 10
379.4553050094
 20
-29.9867247363
 10
380.9835655415
 20
-30.8693034198
 10
382.6820782681
 20
-31.8501680051
  0
LWPOLYLINE
  5
D8
330
1F
100
AcDbEntity
  8
0
  6
Continuous
 62
     7
370
    25
100
AcDbPolyline
 90
       88
 70
   128
 43
0.0
 10
389.7531446048
 20
-35.9322077127
 10
388.2125429487
 20
-35.042532622
 10
386.8458681654
 20
-34.253258883
 10
385.6602404383
 20
-33.5685167199
 10
384.6618448174
 20
-32.9918600002
 10
383.8558890725
 20
-32.5263088114
 10
383.2465720836
 20
-32.1742764543
 10
382.8370706693
 20
-31.9375983327
 10
382.629521148
 20
-31.8175213022
 10
382.6250061669
 20
-31.8146595566
 10
382.8235441651
 20
-31.92904329
 10
383.2241051792
 20
-32.1600608969
 10
383.8245989888
 20
-32.5065129562
 10
384.6218948733
 20
-32.9665932132
 10
385.6118360999
 20
-33.5379030218
 10
386.789266265
 20
-34.2174604626
 10
388.1480358799
 20
-35.0017406393
 10
389.6810728353
 20
-35.8866281451
 10
391.3803764739
 20
-36.867520095
 10
393.2370906891
 20
-37.9393135739
 10
395.2415348768
 20
-39.096386997
 10
397.3832595818
 20
-40.3327539076
 10
399.651097083
 20
-41.6419400837
 10
402.0332262183
 20
-43.017136552
 10
404.5172254801
 20
-44.4511694006
 10
407.0901447141
 20
-45.9365290038
 10
409.7385716736
 20
-47.4655270764
 10
412.4486983265
 20
-49.0301433164
 10
415.2063956005
 20
-50.6222510676
 10
417.9972808836
 20
-52.2335437408
 10
420.8068135129
 20
-53.8556081964
 10
423.6203329707
 20
-55.4800045861
 10
426.4231879587
 20
-57.098255708
 10
429.2007508864
 20
-58.7019222865
 10
431.9385443112
 20
-60.2826455584
 10
434.6222975737
 20
-61.8321860552
 10
437.2380179202
 20
-63.3424646666
 10
439.7720655767
 20
-64.8056120705
 10
442.211235409
 20
-66.2139915478
 10
444.5428069711
 20
-67.560252215
 10
446.7546208974
 20
-68.8374035504
 10
448.8351500248
 20
-70.0387712895
 10
450.7735468081
 20
-71.1580856431
 10
452.5597065404
 20
-72.1895117139
 10
454.1843200365
 20
-73.1276860071
 10
455.6389052432
 20
-73.9676981786
 10
456.9158915328
 20
-74.7051883815
 10
458.0086091665
 20
-75.3363046836
 10
458.9113735882
 20
-75.8577578254
 10
459.6194748875
 20
-76.266809059
 10
460.1292146785
 20
-76.5613522821
 10
460.4379403438
 20
-76.739848645
 10
460.5440424008
 20
-76.8013554558
 10
460.4469676719
 20
-76.7455581238
 10
460.1472219195
 20
-76.5727473538
 10
459.6463685281
 20
-76.2838244761
 10
458.9470206024
 20
-75.8802968908
 10
458.0528159423
 20
-75.3642697074
 10
456.9684275795
 20
-74.7384214224
 10
455.6994966063
 20
-74.0060320575
 10
454.2526506146
 20
-73.1708964791
 10
452.6354259879
 20
-72.2374012082
 10
450.8562567055
 20
-71.210390209
 10
448.9244200134
 20
-70.0952186961
 10
446.849982752
 20
-68.8977099861
 10
444.6437640256
 20
-67.6241096151
 10
442.3172607455
 20
-66.2810423543
 10
439.8826128091
 20
-64.8755225318
 10
437.3525025902
 20
-63.4148655836
 10
434.7401269912
 20
-61.9067084286
 10
432.0591047128
 20
-60.3588890103
 10
429.3234100694
 20
-58.7794932592
 10
426.5473051592
 20
-57.1767611816
 10
423.7452720348
 20
-55.5590233647
 10
420.9319106277
 20
-53.9347332975
 10
418.1218919925
 20
-52.3123552086
 10
415.3298674274
 20
-50.7003480972
 10
412.570389449
 20
-49.107114024
 10
409.8578446207
 20
-47.5409532453
 10
407.2063811125
 20
-46.010052808
 10
404.6298151883
 20
-44.5223717184
 10
402.1415837902
 20
-43.0856683204
 10
399.7546602451
 20
-41.7074455415
 10
397.4814831415
 20
-40.3948854913
 10
395.3339115491
 20
-39.1548236043
 10
393.3231328218
 20
-37.9937319083
 10
391.4596415251
 20
-36.9176521008
 10
389.7531446048
 20
-35.9322077127
  0
LWPOLYLINE
  5
D9
330
1F
100
AcDbEntity
  8
0
  6
Continuous
 62
     1
370
    25
100
AcDbPolyline
 90
       14
 70
   128
 43
0.0
 10
395.4099997815
 20
-163.1289202928
 10
397.8458395188
 20
-164.6292671439
 10
400.1083388171
 20
-166.2174904003
 10
402.1880098609
 20
-167.8869267334
 10
404.0761294052
 20
-169.6305756041
 10
405.7647784522
 20
-171.4411221681
 10
407.2468750143
 20
-173.3109713963
 10
408.5162024313
 20
-175.2322826696
 10
409.5674343952
 20
-177.1969963914
 10
410.3961639262
 20
-179.1968720044
 10
410.9989152264
 20
-181.2235222056
 10
411.3731581677
 20
-183.2684456414
 10
411.5173240972
 20
-185.3230634033
 10
411.519125875
 20
-185.5801432463
  0
LWPOLYLINE
  5
DA
330
1F
100
AcDbEntity
  8
0
  6
Continuous
 62
     1
370
    25
100
AcDbPolyline
 90
       38
 70
   128
 43
0.0
 10
301.519128179
 20
-185.5801432463
 10
301.5353520815
 20
-184.8089691065
 10
301.737132753
 20
-182.7559693467
 10
302.1686875058
 20
-180.7148126318
 10
302.8282079767
 20
-178.6940641843
 10
303.7129230105
 20
-176.7021972252
 10
304.8191302699
 20
-174.7475686439
 10
306.142183065
 20
-172.8383748981
 10
307.6765338167
 20
-170.9826238813
 10
309.4157498622
 20
-169.1881014681
 10
311.3525332115
 20
-167.4623327365
 10
313.4787577544
 20
-165.8125544059
 10
315.7855117375
 20
-164.2456903162
 10
318.2631166145
 20
-162.7683101315
 10
320.9011776718
 20
-161.3866092391
 10
323.6886352307
 20
-160.1063852737
 10
326.6137957633
 20
-158.9330079891
 10
329.6643892683
 20
-157.8713983013
 10
332.8276182503
 20
-156.926006096
 10
336.0902202815
 20
-156.100801485
 10
339.4385068558
 20
-155.3992432516
 10
342.858436487
 20
-154.8242731488
 10
346.3356647588
 20
-154.3783052537
 10
349.8556049103
 20
-154.0632092408
 10
353.4034923737
 20
-153.8803035383
 10
356.9644506284
 20
-153.8303598908
 10
360.5235386167
 20
-153.9135851104
 10
364.0658337201
 20
-154.1296309618
 10
367.5764752231
 20
-154.4775918808
 10
371.0407367536
 20
-154.9560072557
 10
374.4440895025
 20
-155.562870551
 10
377.7722588591
 20
-156.2956376714
 10
381.0112836798
 20
-157.1512338048
 10
384.1475821427
 20
-158.1260701497
 10
387.1679978457
 20
-159.2160583616
 10
390.0598597338
 20
-160.4166269004
 10
392.8110412038
 20
-161.7227399439
 10
395.4099997815
 20
-163.1289202928
  0
LWPOLYLINE
  5
DB
330
1F
100
AcDbEntity
  8
0
  6
Continuous
 62
     1
370
    25
100
AcDbPolyline
 90
       16
 70
   128
 43
0.0
 10
395.4099997815
 20
-163.1289202928
 10
397.8697262452
 20
-164.5488793322
 10
400.2037935264
 20
-165.8962722272
 10
402.402405611
 20
-167.16545312
 10
404.4563466624
 20
-168.3510929225
 10
406.3569996257
 20
-169.4482204717
 10
408.0963921612
 20
-170.4522307948
 10
409.6672302299
 20
-171.3589227472
 10
411.0629204842
 20
-172.1644845591
 10
412.2776150488
 20
-172.8655348958
 10
413.3062181063
 20
-173.4591418631
 10
414.1444109219
 20
-173.9428131172
 10
414.7886808191
 20
-174.3145125902
 10
415.2363277655
 20
-174.5726886202
 10
415.4854683238
 20
-174.7162579787
 10
415.5413971917
 20
-174.7483445448
  0
LWPOLYLINE
  5
DC
330
1F
100
AcDbEntity
  8
0
  6
Continuous
 62
     1
370
    25
100
AcDbPolyline
 90
       35
 70
   128
 43
0.0
 10
320.2786035234
 20
-119.7483448151
 10
320.3350700929
 20
-119.7811507055
 10
320.5849245134
 20
-119.9256762266
 10
321.0332802389
 20
-120.1848103977
 10
321.6782514655
 20
-120.5574538827
 10
322.5171339418
 20
-121.042040008
 10
323.5464123367
 20
-121.6365548486
 10
324.7617664336
 20
-122.3384819445
 10
326.1580961346
 20
-123.1449034579
 10
327.729550601
 20
-124.0524225134
 10
329.4695364851
 20
-125.0572253717
 10
331.3707518455
 20
-126.1551074773
 10
333.425227635
 20
-127.3414555899
 10
335.6243461403
 20
-128.611310147
 10
337.9588811527
 20
-129.9593420708
 10
340.4190374813
 20
-131.3798725434
 10
342.9945036362
 20
-132.8669673043
 10
345.674474219
 20
-134.4143902663
 10
348.4477078751
 20
-136.015630891
 10
351.3025747083
 20
-137.6639924046
 10
354.2270997455
 20
-139.352554536
 10
357.209010351
 20
-141.0742313115
 10
360.2358073503
 20
-142.8218090777
 10
363.2947913709
 20
-144.5879525862
 10
366.3731366
 20
-146.3652506192
 10
369.4579263457
 20
-148.1462547722
 10
372.5362228426
 20
-149.9234954234
 10
375.5951173011
 20
-151.6895106286
 10
378.621776006
 20
-153.43689707
 10
381.6035048533
 20
-155.1583321084
 10
384.5277993999
 20
-156.8465874681
 10
387.3823935957
 20
-158.4945847482
 10
390.1553144431
 20
-160.0954087273
 10
392.8349279302
 20
-161.6423521321
 10
395.4099997815
 20
-163.1289202928
  0
ENDSEC
  0
SECTION
  2
OBJECTS
  0
DICTIONARY
  5
C
330
0
100
AcDbDictionary
281
     1
  3
ACAD_GROUP
350
D
  3
ACAD_LAYOUT
350
1A
  3
ACAD_MLINESTYLE
350
17
  3
ACAD_PLOTSETTINGS
350
19
  3
ACAD_PLOTSTYLENAME
350
E
  3
ACAD_SCALELIST
350
47
  0
DICTIONARY
  5
D
102
{ACAD_REACTORS
330
C
102
}
330
C
100
AcDbDictionary
281
     1
  0
DICTIONARY
  5
1A
102
{ACAD_REACTORS
330
C
102
}
330
C
100
AcDbDictionary
281
     1
  3
Layout1
350
1E
  3
Layout2
350
26
  3
Model
350
22
  0
DICTIONARY
  5
17
102
{ACAD_REACTORS
330
C
102
}
330
C
100
AcDbDictionary
281
     1
  3
Standard
350
18
  0
DICTIONARY
  5
19
102
{ACAD_REACTORS
330
C
102
}
330
C
100
AcDbDictionary
281
     1
  0
ACDBDICTIONARYWDFLT
  5
E
102
{ACAD_REACTORS
330
C
102
}
330
C
100
AcDbDictionary
281
     1
  3
Normal
350
F
100
AcDbDictionaryWithDefault
340
F
  0
DICTIONARY
  5
47
102
{ACAD_REACTORS
330
C
102
}
330
C
100
AcDbDictionary
281
     1
  3
A0
350
48
  3
A1
350
49
  3
A2
350
4A
  3
A3
350
4B
  3
A4
350
4C
  3
A5
350
4D
  3
A6
350
4E
  3
A7
350
4F
  3
A8
350
50
  3
A9
350
51
  3
B0
350
52
  3
B1
350
53
  3
B2
350
54
  3
B3
350
55
  3
B4
350
56
  3
B5
350
57
  3
B6
350
58
  3
B7
350
59
  3
B8
350
5A
  3
B9
350
5B
  3
C0
350
5C
  3
C1
350
5D
  3
C2
350
5E
  3
C3
350
5F
  3
C4
350
60
  3
C5
350
61
  3
C6
350
62
  3
C7
350
63
  3
C8
350
64
  3
C9
350
65
  3
D0
350
66
  3
D1
350
67
  3
D2
350
68
  0
LAYOUT
  5
1E
102
{ACAD_REACTORS
330
1A
102
}
330
1A
100
AcDbPlotSettings
  1

  2
none_device
  4

  6

 40
0.0
 41
0.0
 42
0.0
 43
0.0
 44
0.0
 45
0.0
 46
0.0
 47
0.0
 48
0.0
 49
0.0
140
0.0
141
0.0
142
1.0
143
1.0
 70
   688
 72
     1
 73
     0
 74
     5
  7

 75
    16
147
1.0
148
0.0
149
0.0
100
AcDbLayout
  1
Layout1
 70
     1
 71
     1
 10
0.0
 20
0.0
 11
420.0
 21
297.0
 12
0.0
 22
0.0
 32
0.0
 14
1.0000000000E+20
 24
1.0000000000E+20
 34
1.0000000000E+20
 15
-1.0000000000E+20
 25
-1.0000000000E+20
 35
-1.0000000000E+20
146
0.0
 13
0.0
 23
0.0
 33
0.0
 16
1.0
 26
0.0
 36
0.0
 17
0.0
 27
1.0
 37
0.0
 76
     0
330
1B
  0
LAYOUT
  5
26
102
{ACAD_REACTORS
330
1A
102
}
330
1A
100
AcDbPlotSettings
  1

  2
none_device
  4

  6

 40
0.0
 41
0.0
 42
0.0
 43
0.0
 44
0.0
 45
0.0
 46
0.0
 47
0.0
 48
0.0
 49
0.0
140
0.0
141
0.0
142
1.0
143
1.0
 70
   688
 72
     1
 73
     0
 74
     5
  7

 75
    16
147
1.0
148
0.0
149
0.0
100
AcDbLayout
  1
Layout2
 70
     1
 71
     2
 10
0.0
 20
0.0
 11
0.0
 21
0.0
 12
0.0
 22
0.0
 32
0.0
 14
0.0
 24
0.0
 34
0.0
 15
0.0
 25
0.0
 35
0.0
146
0.0
 13
0.0
 23
0.0
 33
0.0
 16
1.0
 26
0.0
 36
0.0
 17
0.0
 27
1.0
 37
0.0
 76
     0
330
23
  0
LAYOUT
  5
22
102
{ACAD_REACTORS
330
1A
102
}
330
1A
100
AcDbPlotSettings
  1

  2
none_device
  4
Letter_(8.50_x_11.00_Inches)
  6

 40
6.35
 41
6.35
 42
6.35000508
 43
6.35000508
 44
215.9
 45
279.4
 46
0.0
 47
0.0
 48
0.0
 49
0.0
140
0.0
141
0.0
142
1.0
143
1.0
 70
  1712
 72
     1
 73
     0
 74
     0
  7

 75
     0
147
1.0
148
0.0
149
0.0
100
AcDbLayout
  1
Model
 70
     1
 71
     0
 10
0.0
 20
0.0
 11
279.4
 21
215.9
 12
0.0
 22
0.0
 32
0.0
 14
0.0
 24
0.0
 34
0.0
 15
279.4
 25
215.9
 35
0.0
146
0.0
 13
0.0
 23
0.0
 33
0.0
 16
1.0
 26
0.0
 36
0.0
 17
0.0
 27
1.0
 37
0.0
 76
     0
330
1F
331
29
  0
MLINESTYLE
  5
18
102
{ACAD_REACTORS
330
17
102
}
330
17
100
AcDbMlineStyle
  2
Standard
 70
     0
  3

 62
   256
 51
90.0
 52
90.0
 71
     2
 49
0.5
 62
   256
  6
BYLAYER
 49
-0.5
 62
   256
  6
BYLAYER
  0
ACDBPLACEHOLDER
  5
F
102
{ACAD_REACTORS
330
E
102
}
330
E
  0
SCALE
  5
48
102
{ACAD_REACTORS
330
47
102
}
330
47
100
AcDbScale
 70
     0
300
1:1
140
1.0
141
1.0
290
     1
  0
SCALE
  5
49
102
{ACAD_REACTORS
330
47
102
}
330
47
100
AcDbScale
 70
     0
300
1:2
140
1.0
141
2.0
290
     0
  0
SCALE
  5
4A
102
{ACAD_REACTORS
330
47
102
}
330
47
100
AcDbScale
 70
     0
300
1:4
140
1.0
141
4.0
290
     0
  0
SCALE
  5
4B
102
{ACAD_REACTORS
330
47
102
}
330
47
100
AcDbScale
 70
     0
300
1:5
140
1.0
141
5.0
290
     0
  0
SCALE
  5
4C
102
{ACAD_REACTORS
330
47
102
}
330
47
100
AcDbScale
 70
     0
300
1:8
140
1.0
141
8.0
290
     0
  0
SCALE
  5
4D
102
{ACAD_REACTORS
330
47
102
}
330
47
100
AcDbScale
 70
     0
300
1:10
140
1.0
141
10.0
290
     0
  0
SCALE
  5
4E
102
{ACAD_REACTORS
330
47
102
}
330
47
100
AcDbScale
 70
     0
300
1:16
140
1.0
141
16.0
290
     0
  0
SCALE
  5
4F
102
{ACAD_REACTORS
330
47
102
}
330
47
100
AcDbScale
 70
     0
300
1:20
140
1.0
141
20.0
290
     0
  0
SCALE
  5
50
102
{ACAD_REACTORS
330
47
102
}
330
47
100
AcDbScale
 70
     0
300
1:30
140
1.0
141
30.0
290
     0
  0
SCALE
  5
51
102
{ACAD_REACTORS
330
47
102
}
330
47
100
AcDbScale
 70
     0
300
1:40
140
1.0
141
40.0
290
     0
  0
SCALE
  5
52
102
{ACAD_REACTORS
330
47
102
}
330
47
100
AcDbScale
 70
     0
300
1:50
140
1.0
141
50.0
290
     0
  0
SCALE
  5
53
102
{ACAD_REACTORS
330
47
102
}
330
47
100
AcDbScale
 70
     0
300
1:100
140
1.0
141
100.0
290
     0
  0
SCALE
  5
54
102
{ACAD_REACTORS
330
47
102
}
330
47
100
AcDbScale
 70
     0
300
2:1
140
2.0
141
1.0
290
     0
  0
SCALE
  5
55
102
{ACAD_REACTORS
330
47
102
}
330
47
100
AcDbScale
 70
     0
300
4:1
140
4.0
141
1.0
290
     0
  0
SCALE
  5
56
102
{ACAD_REACTORS
330
47
102
}
330
47
100
AcDbScale
 70
     0
300
8:1
140
8.0
141
1.0
290
     0
  0
SCALE
  5
57
102
{ACAD_REACTORS
330
47
102
}
330
47
100
AcDbScale
 70
     0
300
10:1
140
10.0
141
1.0
290
     0
  0
SCALE
  5
58
102
{ACAD_REACTORS
330
47
102
}
330
47
100
AcDbScale
 70
     0
300
100:1
140
100.0
141
1.0
290
     0
  0
SCALE
  5
59
102
{ACAD_REACTORS
330
47
102
}
330
47
100
AcDbScale
 70
     0
300
1/128" = 1'-0"
140
0.0078125
141
12.0
290
     0
  0
SCALE
  5
5A
102
{ACAD_REACTORS
330
47
102
}
330
47
100
AcDbScale
 70
     0
300
1/64" = 1'-0"
140
0.015625
141
12.0
290
     0
  0
SCALE
  5
5B
102
{ACAD_REACTORS
330
47
102
}
330
47
100
AcDbScale
 70
     0
300
1/32" = 1'-0"
140
0.03125
141
12.0
290
     0
  0
SCALE
  5
5C
102
{ACAD_REACTORS
330
47
102
}
330
47
100
AcDbScale
 70
     0
300
1/16" = 1'-0"
140
0.0625
141
12.0
290
     0
  0
SCALE
  5
5D
102
{ACAD_REACTORS
330
47
102
}
330
47
100
AcDbScale
 70
     0
300
3/32" = 1'-0"
140
0.09375
141
12.0
290
     0
  0
SCALE
  5
5E
102
{ACAD_REACTORS
330
47
102
}
330
47
100
AcDbScale
 70
     0
300
1/8" = 1'-0"
140
0.125
141
12.0
290
     0
  0
SCALE
  5
5F
102
{ACAD_REACTORS
330
47
102
}
330
47
100
AcDbScale
 70
     0
300
3/16" = 1'-0"
140
0.1875
141
12.0
290
     0
  0
SCALE
  5
60
102
{ACAD_REACTORS
330
47
102
}
330
47
100
AcDbScale
 70
     0
300
1/4" = 1'-0"
140
0.25
141
12.0
290
     0
  0
SCALE
  5
61
102
{ACAD_REACTORS
330
47
102
}
330
47
100
AcDbScale
 70
     0
300
3/8" = 1'-0"
140
0.375
141
12.0
290
     0
  0
SCALE
  5
62
102
{ACAD_REACTORS
330
47
102
}
330
47
100
AcDbScale
 70
     0
300
1/2" = 1'-0"
140
0.5
141
12.0
290
     0
  0
SCALE
  5
63
102
{ACAD_REACTORS
330
47
102
}
330
47
100
AcDbScale
 70
     0
300
3/4" = 1'-0"
140
0.75
141
12.0
290
     0
  0
SCALE
  5
64
102
{ACAD_REACTORS
330
47
102
}
330
47
100
AcDbScale
 70
     0
300
1" = 1'-0"
140
1.0
141
12.0
290
     0
  0
SCALE
  5
65
102
{ACAD_REACTORS
330
47
102
}
330
47
100
AcDbScale
 70
     0
300
1-1/2" = 1'-0"
140
1.5
141
12.0
290
     0
  0
SCALE
  5
66
102
{ACAD_REACTORS
330
47
102
}
330
47
100
AcDbScale
 70
     0
300
3" = 1'-0"
140
3.0
141
12.0
290
     0
  0
SCALE
  5
67
102
{ACAD_REACTORS
330
47
102
}
330
47
100
AcDbScale
 70
     0
300
6" = 1'-0"
140
6.0
141
12.0
290
     0
  0
SCALE
  5
68
102
{ACAD_REACTORS
330
47
102
}
330
47
100
AcDbScale
 70
     0
300
1'-0" = 1'-0"
140
12.0
141
12.0
290
     0
  0
ENDSEC
  0
EOF
